Cifras e Tablaturas
AC/DC

AC/DC

Heatseeker

Ano: 1992
Album : AC/DC Live

Cifras Cancelar Versão de Impressão

AC/DC - Heatseeker

Tom: E5

  			 
Riff 1: 
  E5                                                                        B5 
E|----------------------------------------------------------0-----0---0-------| 
B|-x-----5----------------5----------------5--5--5--5-------0-----0---0-------| 
G|-x-4---4-4--4--4--2--4--4-4--4--4--2--4--4--4--4--4--0-1--------1---1-----4-| 
D|-x-4---2-2--2--2--2-------2--2--2--2--------2--2--2----------x---------0--4-| 
A|-x-2---------------------------------------------------------x---------0--2-| 
E|-x--------------------------------------------------------------------------| 
 
Riff 2: 
  E5  B5 
E|----------------------------------------------------------------------------| 
B|----------------------------------------------------------------------------| 
G|--4-----4---4--4-----4--4--4--4--4-----4--4----4-----4---4--4-----4--4--4--4| 
D|--2--4--4---4--2--4--4--4--4--4--2--4--4--4----2--4--4---4--2--4--4--4--4--4| 
A|2---------2----------2-----------------------2---------2----------2---------| 
E|----------------------------------------------------------------------------| 
 
E|-------------| 
B|-------------| 
G|-4-----4--4--| 
D|-2--4--4--4--| 
A|-------------| 
E|-------------| 
 
Riff 3: 
   A   B   E                      A    Bsus4 E 
E|-5------------------------------5-------------------------------------------| 
B|-5---4---9-----9--9---9-9-9--9--5-----5----9----9--9---9--9--9--9-----------| 
G|-2---4---9-----9--9---9-9-9--9--2-----4----9----9--9---9--9--9--9-----------| 
D|-2---4---9-----9--9---9-9-9--9--2-----4----9----9--9---9--9--9--9-----------| 
A|-0---2---7-----7--7---7-7-7--7--0-----2----7----7--7---7--7--7--7-----------| 
E|---------0-----0--0---0-0-0--0-------------0----0--0---0--0--0--0-----------| 
 
Riff 4: 
   E5                E6    E5                        E6    E5 
E|-------------------------------------------------------------------| 
B|-------------------------------------------------------------------| 
G|-4-----4-----4-----6-----4-------4-----4-----4-----6-----4---------| 
D|-2-2-2-2-2-2-2-2-2-2-2-2-2-2-2-2-2-2-2-2-2-2-2-2-2-2-2-2-2-2-2-2---| 
A|-------------------------------------------------------------------| 
E|-------------------------------------------------------------------| 
 
Riff 5 :(Refrão) 
                  C5   D5          B5 C5 D5 
               E|--------------------------| 
O refrão é o   B|--------------------------| 
Riff 2 + isso: G|-5----7--7--7--7--4--5--7-| 
               D|-5----7--7--7--7--4--5--7-| 
               A|-3----5--5--5--5--2--3--5-| 
               E|--------------------------| 
 
Riff 6:(ponte para o solo) 
  |-vai fazendo o Riff 2:-------|   A base faz isso enquanto Angus faz uma espécie de um solo. 
E|----------------------------...-|----------------| 
B|----------------------------...-|----------------| 
G|--4-----4---4--4-----4--4--4...-|----------------| 
D|--2--4--4---4--2--4--4--4--4...-|--9-----9-----9-| 
A|2---------2----------2------...-|--9-----9-----9-| 
E|----------------------------...-|--7-----7-----7-| 
 
Solo:     ph                            b     b ph 
e|----------------------------------------------------------------------------| 
b|---------------------0-2--3----2--0-2--3--2--<3>------0--2--3----0--2--3--0-| 
g|-------<4>------------------------------------------------------------------| 
D|----------------------------------------------------------------------------| 
A|-2--2--------2---2----------------------------------------------------------| 
E|----------------------------------------------------------------------------| 
                                                                ph      b 
e|----------------------------------------------------------------------------| 
b|---3--0----3--0-----------------------------------------------------10-12---| 
g|2--------2-------2-----------------------------4------4------<4>------------| 
D|--------------------4--2--0--4--2--0--4--2--0-------------------------------| 
A|----------------------------------------------------------------------------| 
E|----------------------------------------------------------------------------| 
                                                            ~~~~~~~      b 
e|---------------7--10-7-9-7-9-7----7-----------------------------------------| 
b|-----------19------------------10----10--7----7-----------------------9--10-| 
g|-------------------------------------------10---9-7----------------7--9--10-| 
D|-----------------------------------------------------9---9------------------| 
A|----------------------------------------------------------------------------| 
E|----------------------------------------------------------------------------| 
  r    b      b                                                  b   r   b   r 
e|----------------------------------------------------------------------------| 
b|-9-9--10--9--10--------------------------------------12--10---9--10--9--10--| 
g|-9-9--10--9--10--7-----------------------------------13--11---9--10--9--10--| 
D|-----------------------9-------7-7-7-7-7--9-4-0--0--------------------------| 
A|---------------------------9------------------------------------------------| 
E|----------------------------------------------------------------------------| 
           b    r          b      b             b          b      b      b 
e|---------------------------------------12----------17------------17-----17--| 
b|9---7--9---10--9--7--9--9--10--9--10--------17-19-----17--19--17-19--17-19--| 
g|9---7--9---10--9--7--9--9--10--9--10----------------------------------------| 
D|----------------------------------------------------------------------------| 
A|----------------------------------------------------------------------------| 
E|----------------------------------------------------------------------------| 
                      b      b      b      b 
e|-17--17--17--17------17-----17-----17-----17-------| 
b|-19--19--19--19---17-19--17-19--17-19--17-19-------| 
g|----------------------------------------------------| 
D|----------------------------------------------------| 
A|----------------------------------------------------| 
E|----------------------------------------------------| 
    w/patt1 
   E5    B5                               ub     ub     ub     ub      b ~~~~~~ 
e|------------------------|-----------|-----7------7------7-------7--17-19----| 
b|------------------------|-----------|-10-12--10-12--10-12---10-12-----------| 
g|----4----4-----4--4--4--|-----------|---------------------------------------| 
D|----2--4-4-----4--2--4--|-----------|---------------------------------------| 
A|-2----------2--------2--|-----------|---------------------------------------| 
E|------------------------|-----------|---------------------------------------| 
 
 ending Solo-... 
     ub      ub          ub       ub           ub    ~~~~~~~ ~~~~~~  ~~~~~~ 
e|----19------19----------19-------19-----------19----------------------------| 
b|-22-24---22-24---22--22-24----22-24----22--22-24----------------------------| 
g|---------------------------------------------------4-------2----------------| 
D|------------------------------------------------------------------4---------| 
A|----------------------------------------------------------------------------| 
E|----------------------------------------------------------------------------| 
     b      ~~~~~~~~~~~~~~~~~~~~~ 
e|-----------------------------------| 
b|-----------------------------------| 
g|-----------------------------------| 
D|-----------------------------------| 
A|-5--6-----2------------------------| 
E|-----------------------------------| 
 
Riff 7: 
   D5  B5 C5 D5  B5 C5 D5        B5 C5 D5  B5 C5 D5     B5 C5 D5 
E|-----------------------|-------------------------|---------------| 
B|-----------------------|-------------------------|---------------| 
G|-7---4--5--7---4--5--7-|-7-7---4--5--7---4--5--7-|-7--4--5--7~~--| 
D|-7---4--5--7---4--5--7-|-7-7---4--5--7---4--5--7-|-7--4--5--7~~--| 
A|-5---2--3--5---2--3--5-|-5-5---2--3--5---2--3--5-|-5--2--3--5~~--| 
E|-----------------------|-------------------------|---------------| 
 
  heatseekeeeeer.... 
E|--------12^--12^--12^--12^--12^^^^^^^--| 
B|--------12^--12^--12^--12^-------------| 
G|---------------------------------------| 
D|---------------------------------------| 
A|---------------------------------------| 
E|---------------------------------------| 
 
Riff 8 : 
  |-vai fazendo o Riff 2:-------|   C5   D5          B5 C5 D5 
E|----------------------------...-|---------------------------| 
B|----------------------------...-|---------------------------| 
G|--4-----4---4--4-----4--4--4...-|-5----7--7--7--7--4--5--7--| 
D|--2--4--4---4--2--4--4--4--4...-|-5----7--7--7--7--4--5--7--| 
A|2---------2----------2------...-|-3----5--5--5--5--2--3--5--| 
E|----------------------------...-|---------------------------| 
 
Riff 9: 
  ´´no final tem um solinho``  
 
Riff 10: 
   D5  B5 C5 D5  B5 C5 D5  B5 A5           B5 
E|-----------------------|----------------------| 
B|-----------------------|----------------------| 
G|-7---4--5--7---4--5--7-|-4--2--2---2--2--4~~--| 
D|-7---4--5--7---4--5--7-|-4--2--2---2--2--4~~--| 
A|-5---2--3--5---2--3--5-|-2--0--0---0--0--2~~--| 
E|-----------------------|----------------------| 
--------------------------------------- 
Heatseeker: 
 
Intro: 
Riff 1: 
Riff 2:2x 
Riff 3: 
Riff 2: 
 
Verso 1: 
Riff 4:(4x) 
Getting ready to rock, getting ready to roll 
Gonna turn up the heat, gonna fire up the coal 
Riff 3:(2x)  
I gotta that motor turning 
I gotta keep that engine clean 
I gotta keep those tyres burning 
I?ve got the best you?ve ever seen 
 
Refrão: 
Riff 5: 
Cos I?m a heatseeker, charging up the sky 
Heatseeker, and I, don?t need no life preserver 
Don?t need no one to hose me down 
Riff 2: 
    To hose me down 
 
Verso 2: 
Riff 4:(4x) 
Getting ready to break, get ready to go 
Get your shoes off an? shake, get your head down and blow 
Riff 3:(2x)  
Ya gotta keep that woman firing 
You gotta keep that circuit clean 
You gotta make her sound the siren 
You gotta hear that lady scream 
 
Refrão: 
Riff 5: 
Cos I?m a heatseeker, burning up the town 
Heatseeker, I don?t, I don?t need no life preserver 
Don?t need no one to hose me down 
Riff 6: 
     To hose me down,here it comes 
 
Solo: 
 
Riff 7: 
Heatseeker 
 
Verso 3: 
Riff 4:(várias vezes) 
Wanna see you get up, see the whites of your eyes 
I?m a heatseeker 
I?m gonna measure you, gonna try you for size 
I?m a heatseeker 
Riff 3:(2x) 
Ya gotta keep that motor turning 
Ya gotta keep that engine clean 
Ya gotta keep those tyres burning 
I got the best you?ve ever seen 
 
Refrão: 
Riff 8: 
I?m a heatseeker 
I don?t need no life preserver 
Don?t need no one to hose me down 
 
Final: 
Riff 9: 
I?m a heatseeker, I?m a heatseeker, heatseeker 
Riff 10: 
  Out on the street feel the heat. 
 
_______________________________________________________ 
Contribuição: Taino Vieira([email protected]) 

    	
fixar
fixar inscrever-se

enviado porenviado por: anônimo
cifra enviadaCorrigida por: sem correções
logo top cifrasComente
ico música do artistaMúsicas deste artista
ico curtiuCurtiu?
ico destaqueDestaque
Petaxxon Comunicação Online

Cifras.com.br - Melhor e mais completo site de cifras e tablaturas do Brasil Mais de 1 milhão de acordes de músicas cadastradas desde 2003
As informações contidas no nosso site são colaborações de seus usuários e podem conter erros, sendo assim, não nos responsabilizamos sobre nenhuma destas.

close
menos
mais
close
Cor dos acordes:

Cor da letra:

close
Alinhar acordes a direita Alinhar acordes a esquerda Alinhar acordes em baixo Alinhar acordes no topo
close
  Mostrar todos os acordes Esconder acordes muito fáceis Esconder acordes fáceis Esconder acordes intermediários
redimensionar
glossário