Cifras e Tablaturas
AC/DC

AC/DC

Let There Be Rock

Ano: 1992
Album : Let There Be Rock

Cifras Cancelar Versão de Impressão

AC/DC - Let There Be Rock

Tom:

  			
Standard Tuning: EADGBe 

Solo 1

----------------------------------------------------------------
----------------------------------------------------------------
--------------------5-7-7b8r7p5--7--5~--------------------------
-7-7-7\--7-7-7\--/7---------------------------------------------
----------------------------------------------------------------
----------------------------------------------------------------

----------------------------------------------------------------
----------------------------------------------------------------
----5-7-7b8r7p5--7---5-7-7b8r7p5-7------------------------------
-/7----------------7---------------7----------------------------
----------------------------------------------------------------
----------------------------------------------------------------

----------------------------------------------------------------
----------------------------------------------------------------
-5-5---5-5---5-5---5-5---5-5----5----5-5---5-5---5-5---5-5------
-----7-----7-----7-----7-----7----7------7-----7-----7-----7----
----------------------------------------------------------------
----------------------------------------------------------------

----------------------------------------------------------------
----------------------------------------------------------------
-7-7---7-7----7----7-7---7-7---7-7---7-7----7----7-7------------
-----9-----9----9------9-----9-----9-----9----9------9----------
----------------------------------------------------------------
----------------------------------------------------------------

----------------------------------------------------------------
-15b17-b17-b17r15h12-15--13----15--13----15-13-13---------------
----------------------------14--------14-------14---------------
----------------------------------------------------------------
----------------------------------------------------------------
----------------------------------------------------------------

----------------------------------------------------------------
-10----------10----------10----------10-------------------------
----12b14-14----12b14-14----12b14-14----12b14-14----------------
----------------------------------------------------------------
----------------------------------------------------------------
----------------------------------------------------------------

------------------------------------------10t-----24hn----------
-10-------10-------10---------14t-p10-14t-----------------------
----12b14----12b14----12b14-------------------t12---------------
----------------------------------------------------------------
----------------------------------------------------------------
----------------------------------------------------------------

Solo 2

----------------------------------------------------------------
----------------------------------------------------------------
----------------------------------------------------------------
----------------------------------------------------------------
-0-0-3-4--0-0-3-4--0-0-3-4--0-0-3-4--0-0-3-4--0-0-3-4--0-0-3-4--
----------------------------------------------------------------

----------------------------------------------------------------
----------------------------------------------------------------
----------------------------------------------------------------
-------------------2-2--4-4--5-5--4-4--2-2----------------------
--0-0-3-4--0-0-3-4---------------------------4-4----------------
----------------------------------------------------------------

----------------------------------------------------------------
----------------------------------------------------------------
----------------------------------------------------------------
---------2-2--4-4--5-5--4-4--2-2--------------------------------
-0-0-3-4-------------------------4-4----------------------------
----------------------------------------------------------------

----------------------------------------------------------------
----------------------------------------------------------------
--------------1-1--4-4--1-1-------------------------------------
-----1-1--4-4----------------4-4--1-1---------------------------
-2-2------------------------------------------------------------
----------------------------------------------------------------

----------------------------------------------------------------
----------------------------------------------------------------
--------------1-1--4-4--1-1-------------------------------------
-----1-1--4-4----------------4-4--1-1---------------------------
-2-2------------------------------------------------------------
----------------------------------------------------------------

----------------------------------------------------------------
-14-13-10------13-10----13-10-----13-10----13-10----13-10--13~--
-----------11--------11--------11-------11-------11-------------
----------------------------------------------------------------
----------------------------------------------------------------
----------------------------------------------------------------


Solo 3

----------------------------------------------------------------
----------------------------------------------------------------
-7b9--7b9--7b9--7b9--7b9--7b9r7-5----7b9r7-5--------------------
----------------------------------7----------7------------------
----------------------------------------------------------------
----------------------------------------------------------------

----------------------------------------------------------------
----------------------------------------------------------------
-5-6----5-6----5-6----6-----------------------------------------
-----7------7------7----5--7-7\ --------------------------------
----------------------------------------------------------------
----------------------------------------------------------------

----------------------------------------------------------------
--------------------------5b7-b7r5-3------3---------------------
-5p4p2---2-2--5p4p2---2-2-------------5-2----5-2--5/7-5---------
-------4------------4-------------------------------------------
----------------------------------------------------------------
----------------------------------------------------------------

----------------------------------------------------------------
--------7-5-5--7-5-5--7-5-5--7-5-5--7-5-5--7-5------------------
-7-5-5--7-5-5--7-5-5--7-5-5--7-5-5--7-5-5--7-5------------------
----------------------------------------------------------------
----------------------------------------------------------------
----------------------------------------------------------------

---------5-5-5--------------------------------------------------
-----5-7-------8p7p5--------/8...-------------------------------
-3/6-----------------5b7----/9...-------------------------------
-------------------------7--------------------------------------
----------------------------------------------------------------
----------------------------------------------------------------


Solo 4

--------------7-------------------------------------------------
------------7---10---7--10--------------------------------------
-7b8---9b11--------9--------7b8---9-7-----------9-7b8---9-7b8---
-----9--------------------------9---------7-8-9-------9---------
----------------------------------------9-----------------------
----------------------------------------------------------------

----------------------------------------------------------------
----------------------------------------------------------------
7-8---7-8---7-8---7-8---7-8---7-8---7-8---7-8---7-8---7-8---7-8-
----9-----9-----9-----9-----9-----9-----9-----9-----9-----9----9
----------------------------------------------------------------
----------------------------------------------------------------


----------------------------------------------------------------
-7...--9...--10...--9...---7...--9...--10...--9...--------------
-8...--9...--11...--9...---8...--9...--11...--9...--------------
----------------------------------------------------------------
----------------------------------------------------------------
----------------------------------------------------------------

----------------------------------------------------------------
-7...--9...--10...--9...---7...--9...--10...--9...--------------
-8...--9...--11...--9...---8...--9...--11...--9...--------------
----------------------------------------------------------------
----------------------------------------------------------------
----------------------------------------------------------------

----------------------------------------------------------------
-7...--9...--10...--9...---7...--9...--10...--9...--------------
-8...--9...--11...--9...---8...--9...--11...--9...--------------
----------------------------------------------------------------
----------------------------------------------------------------
----------------------------------------------------------------

----------------------------------------------------------------
-7...--9...--10...---/10...-/10...-/10...-/10...----------------
-8...--9...--11...---/11...-/11...-/11...-/11...----------------
----------------------------------------------------------------
----------------------------------------------------------------
----------------------------------------------------------------

----------------------------------------------------------------
-12...--13...--12...--14...-13...-------------------------------
-12...--14...--12...--15...-13...-------------------------------
----------------------------------------------------------------
----------------------------------------------------------------
----------------------------------------------------------------

-14...--16...--14...--16...--14...--16...--14...--16...---------
-16...--17...--16...--17...--16...--17...--16...--17...---------
----------------------------------------------------------------
----------------------------------------------------------------
----------------------------------------------------------------
----------------------------------------------------------------

-17b19--17b19--17b19--17b19--17b19--17b19--17b19----------------
----------------------------------------------------------------
----------------------------------------------------------------
----------------------------------------------------------------
----------------------------------------------------------------
----------------------------------------------------------------
    	
fixar
fixar inscrever-se

enviado porenviado por: anônimo
cifra enviadaCorrigida por: sem correções
logo top cifrasComente
ico música do artistaMúsicas deste artista
ico curtiuCurtiu?
ico destaqueDestaque
Petaxxon Comunicação Online

Cifras.com.br - Melhor e mais completo site de cifras e tablaturas do Brasil Mais de 1 milhão de acordes de músicas cadastradas desde 2003
As informações contidas no nosso site são colaborações de seus usuários e podem conter erros, sendo assim, não nos responsabilizamos sobre nenhuma destas.

close
menos
mais
close
Cor dos acordes:

Cor da letra:

close
Alinhar acordes a direita Alinhar acordes a esquerda Alinhar acordes em baixo Alinhar acordes no topo
close
  Mostrar todos os acordes Esconder acordes muito fáceis Esconder acordes fáceis Esconder acordes intermediários
redimensionar
glossário