Cifras e Tablaturas
AC/DC

AC/DC

Let's Make It

Ano: 2003
Album : The Razor's Edge

Cifras Cancelar Versão de Impressão

AC/DC - Let's Make It

Tom: F#5

  			 
E-------------------------------| 
B-----------------------3-------| 
G-----------------2-----2-------| 
D---4-------------2-----0-----2-| 
A---4-------------0-----------2-| 
E---2-------------------------0-| 
 
guitar 1 
|----------------------------------------------------------| 
|----------------------------3-----------------------------| 
|---4---4-----4---4----------2-------------2---------------| 
|---4---4-----4---4----------0-----2-------2-------2-------| 
|---2---2-----2---2----------------2-------0-------2-------| 
|----------------------------------0---------------0-------| 
 
Guitar 2 
|----------------------------------------------------------| 
|----------------------3-----------------------------------| 
|-4--------------------2---------------2-------------------| 
|-4--------------------0--------2------2-------2-----------| 
|-2-----------------------------2------0-------2-----------| 
|-------------------------------0--------------0-----------| 
 
PRE CHORUS 
|---------------------------------------------------------| 
|---------------------------------------------------------| 
|---------2----------------------2-----------------4------| 
|---------2--------2-------------2---------2-------4------| 
|---------0--------2-------------0---------2-------2------| 
|------------------0-----------------------0--------------|  
  "and i warn     you,  its the best shot of your life" 
 
Chorus 
|-------------------------------------------------------------------- 
|------------------------------------------3--------------2---------- 
|-----2------4-----4---4-----4---4---------2--------------2---------- 
|-----2------4-----4---4-----4---4---------0-------2------0------2--- 
|-----0------2-----2---2-----2---2-----------------2-------------2--- 
|--------------------------------------------------0-------------0--- 
   "shot of love" 
|-------------------------------------------------------------------- 
|--------------------------------------3---------------2------------- 
|---2-----4----------------------------2---------------2------------- 
|---2-----4----------------------------0------2--------0-----2------- 
|---0-----2-----------------------------------2--------------2------- 
|---------------------------------------------0--------------0------- 
 
 
E|---------------------------------------------------------------------------------------------| 
B|---------------------------------------------------------------------------------------------| 
G|----2--------4----------------------------------------------------2------4-------------------| 
D|----2--------4----------------------------------------------------2------4-------------------| 
A|----0--------2----------------------------------------------------0------2-------------------| 
E|---------------------------------------------------------------------------------------------| 
 
SOLO 
E|-10--10-------------------------------------------------------|------------------------------| 
B|--9---9-------9--7----------9--7-----10-10--------------------|------------------------------| 
G|--------------9--7--9b-r-7--9--7---9b----9b--7----------------|------------------------------| 
D|------------------------------------------------9--7--9--\----|------------------------------| 
A|--------------------------------------------------------------|------------------------------| 
E|--------------------------------------------------------------|------------------------------| 
 
E|---------------------------------|-------|----------10b-----------10b---------10b------------| 
B|--10--10---9--7-----9b-r---------|-------|-----------------12--------------------------------| 
G|------9b---9--7-----9b-r--7------|-------|---------------------11------12--11------12--10--12| 
D|-----------------9------------7--|-------|---------------------------------------------------| 
A|---------------------------------|-------|---------------------------------------------------| 
E|---------------------------------|-------|---------------------------------------------------| 
 
E|-----10-12-12b-r-10-12b--10--12-12b-10-12--10-------|| 
B|--12------------------------------------------12\---|| 
G|----------------------------------------------------|| 
D|----------------------------------------------------|| 
A|----------------------------------------------------|| 
E|----------------------------------------------------|| end solo 
 
second solo 
()= Rythem guitar                            F#5             F#5     A5            D5     E5 
E|---------------------------------------------------------------------------------------------| 
B|--------------------------------------------------------------------10-----------------------| 
G|-----------------------------------9----9---11-------------11---11---9------------7---7---9--| 
D|-----------------------------------9----9---11-------------11---11----------------7---7---9--| 
A|-------------------------------------------(4)-----------------------------------------------| 
E|--(7---7---5---7-----5---7)--------(0---1--(2)-----------------------------------------------| 
    D5    A5    B5                       F#5        F#5      A5        D5     E5 
E|--------------------------------------------------------------------------------10-----------| 
B|------------------------------------------------------------10---------------9b--------------| 
G|---7-----------------------------9---9---11--------11---11---9--------7---7------------------| 
D|---7----7-----9~~~~~~~~~~~~~-----9---9---11--------11---11------------7---7------------------| 
A|---------------------------------------------------------------------------------------------| 
E|---------------------------------------------------------------------------------------------| 
       D5       A5      B5 
E|--7-------------------------------------7------------7-------10----7---10---7----------------| 
B|--7------------------------------------------------7----------9---------9--------------------| 
G|-----6----6-----6----6----6--------9b---------9b--------9b---------------------9b--9b--------| 
D|----------7-----7----7----7/9----------------------------------------------------------------| 
A|---------------------------------------------------------------------------------------------| 
E|---------------------------------------------------------------------------------------------| 
 
E|---7------------------------------7-------------------7-----------10----7-10-----------------| 
B|---7--9---------------------------7---7--9-----7------7--7--9b-----9----7--9--7--10--7-------| 
G|---------9b--9--7--9-7----7--------------9-----7------------9b--------------------------10---| 
D|-----------------------9--7---9-------------9------9-----------------------------------------| 
A|------------------------------9--------------------------------------------------------------| 
E|---------------------------------------------------------------------------------------------| 
                                           B5 
E|---------------------------------------------------------------------------------------------| 
B|-9-------------------------------------------------------------------------------------------| 
G|-9--7---------------------------------7------------------------------------------------------| 
D|-------9-----7b--9---------------------------------------------7b-----9----7b------7b--------| 
A|----------9----------------------------------2-----------------------------------------------| 
E|-------------------------------------------2----0--5--7--------------------------------------| 
                      "shot of love" 
                                D5     E5        A5      e%         B5 
E|---------------------------------------------------------------------------------------------| 
B|---------------------------------------------------------------------------------------------| 
G|---------------7---7------7----------------7------7---9--9--9~~~~~~--9b----------------------| 
D|--7---9-------------------------9---9--------------------------------------------------------| 
A|---------------------------------------------------------------------------------------------| 
E|---------------------------------------------------------------------------------------------| 
 
E|---------------------------------------------------------------------10--7----10--7----7-----| 
B|-----------10>10>10>10------------------------------------------------9-----7--9---------9b--| 
G|---7--9--9b>>>>>>>>>>>-9-b-9-7-9-7-------7---------------------------------------------------| 
D|--------------------------------------9-----9------------9--7--9-----------------------------| 
A|-----------------------------------------------7--9--7---------------------------------------| 
E|---------------------------------------------------------------------------------------------| 
 
E|----------------7---7---------------------|---------------|----------------------------------| 
B|----10b----------------9b-r------9b-------|---------------|------7--7--7~~~~~~------7--------| 
G|-7----------------------------7--9bb------|---------------|------7--7--7~~~~~~------7--------| 
D|------------------------------------------|---------------|---9----------------9-------9--9--| 
A|------------------------------------------|---------------|----------------------------------| 
E|------------------------------------------|---------------|----------------------------------| 
 
E|---------------------------------------------------------------------------------------------| 
B|--------------------------------------------------10--10--10~~~~--------10-----10---9--10--9~~ 
G|--------9b---7-------7-----------9b----9---7------11--11--11~~~~--9-11--11-----11----------9~~ 
D|--------------------------9\-----------------9-----------------------------------------------| 
A|---7-----------------------------------------------------------------------------------------| 
E|---------------------------------------------------------------------------------------------| 
 
E|---------------------------------------------------------------------------------------------| 
B|-----7---9~~~~---7--9-------------12---------15-15--15-15-15--12------12---------------------| 
G|-----7---9~~~~---7--9-----------------14b-------14b>>>>>>>>>-----14b-----14b--9b--9-7-9--7---| 
D|--------------------------------------------------------------------------------------------9| 
A|---------------------------------------------------------------------------------------------| 
E|---------------------------------------------------------------------------------------------| 
 
E|---------------------------------------------------------------------------------------------| 
B|--3---------------------------3--------------------------------------------------------------| 
G|--2------------2--------------2--------------2-----------------------2------------4----------| 
D|--0-----2------2-------2------0------2-------2-----4-----------------2------2-----4----------| 
A|--------2------0-------2-------------2-------0-----4-----------------0------2-----2----------| 
E|--------0--------------0-------------0-------------2------------------------0----------------| 
 
 
_______________________________________________________ 
Contribuição: Carlos henrique([email protected]) 

    	
fixar
fixar inscrever-se

enviado porenviado por: anônimo
cifra enviadaCorrigida por: sem correções
logo top cifrasComente
ico música do artistaMúsicas deste artista
ico curtiuCurtiu?
ico destaqueDestaque
Petaxxon Comunicação Online

Cifras.com.br - Melhor e mais completo site de cifras e tablaturas do Brasil Mais de 1 milhão de acordes de músicas cadastradas desde 2003
As informações contidas no nosso site são colaborações de seus usuários e podem conter erros, sendo assim, não nos responsabilizamos sobre nenhuma destas.

close
menos
mais
close
Cor dos acordes:

Cor da letra:

close
Alinhar acordes a direita Alinhar acordes a esquerda Alinhar acordes em baixo Alinhar acordes no topo
close
  Mostrar todos os acordes Esconder acordes muito fáceis Esconder acordes fáceis Esconder acordes intermediários
redimensionar
glossário