Cifras e Tablaturas
AC/DC

AC/DC

TNT Tablatura Verificada

Compositor : (Angus Young / Malcolm Young / Bon Scott)

Cifras Cancelar Versão de Impressão
cifras

AC/DC - TNT

fixar na tela  
Exibindo: vídeo-aula ver clipes redimensionar

Tom:

Em

ver outros tons
   
Intro:  
E|--------------|  
B|--------------|  
G|--------------|  
D|-2------------|  
A|-2------------|  
E|-0------------|  


Verse: 

e|---x----x----x---------x|----| 
B|---x----x----x---------x|----| 
G|-1-x----x--2-x----2----x|--1-| 
D|-2-x----x--2-x----2----x|--2-| 
A|-2-x----x--0-x----0----x|--2-| 
E|-0-x--3-x----x--3---3b-x|--0-| 
                      (3x) 

Chorus:  

E|-------------|  
B|-------------|  
G|-------------|  
D|--7--5--2----|  
A|--7--5--2----|  
E|--5--3--0----|  

Solo: 

e|--------3-2-0-------------------------12----------------------------| 
B|--------------3-2-0-------------15b17----15-12----12----------------| 
G|2b4-2b4--------------2p0-----0-----------------14----14-12----14----| 
D|------------------------2p0--------------------------------14----14-| 
A|--------------------------------------------------------------------| 
E|-------------------------------0------------------------------------| 

e|-------------12----------12----------12h15p12----12----------------| 
B|----------12----12-15-12----12-15b17----------15----15p12----12----| 
G|12b-14b16-------------------------------------------------14----14-| 
D|-------------------------------------------------------------------| 
A|-------------------------------------------------------------------| 
E|-------------------------------------------------------------------| 

e|---------------------------------------17b19--| 
B|----------------------------------------------| 
G|-12----14----12b14----------------------------| 
D|----14----14-------14-12-14~~~-14~~~~---------| 
A|----------------------------------------------| 
E|----------------------------------------------| 

  

top 5 | ac/dc
top heavy metal
Outras músicas do artista letras do(a) AC/DC
Top cifras »Top artistas »
Petaxxon Comunicação Online
Cifras.com.br - Melhor e mais completo site de cifras e tablaturas do Brasil
Mais de 1 milhão de acordes de músicas cadastradas desde 2003
As informações contidas no nosso site são colaborações de seus usuários e podem conter erros, sendo assim, não nos responsabilizamos sobre nenhuma destas.
close
menos
mais
close
Cor dos acordes:

Cor da letra:

 

save
close
close
 
redimensionar