Cifras e Tablaturas
Active Child

Active Child

Darling

Cifras Cancelar Versão de Impressão

Active Child - Darling

Tom: C

  			
Intro 
   C       /                                 / 
   1   2   3   4    1   2   3   4    1   2   3   4    1   2   3   4      
e||----------------|----------------|----------------|----------------|| 
B||3p0-----3p0-----|3p0-----3p0-----|3p0-----3p0-----|3p0-----3p0-----|| 
G||------0-0---0---|0---0---0---0---|------0-0---0---|0---0---0---0---|| 
D||----0---------0-|------0-------0-|----0---------0-|------0-------0-|| 
A||--2-------------|----------------|--2-------------|----------------|| 
E||3-let-note-ring-|----------------|3-let-note-ring-|----------------|| 

   C       /                                 /         A 
   1   2   3   4    1   2   3   4    1   2   3   4    1   2   3   4      
e||----------------|----------------|----------------|0-------0-------|| 
B||3p0-----0h1-----|1p0-----3p0-----|3p0-----3p0-----|--1-------1-----|| 
G||------0-0---0---|0---0---0---0---|------0-0---0---|----2-------2---|| 
D||----0---------0-|------0-------0-|----0---------0-|------2-------2-|| 
A||--2-------------|----------------|--2-------------|----------------|| 
E||3-let-note-ring-|----------------|3-let-note-ring-|----------------|| 

Verse 
   C       /                                 /  
   1   2   3   4    1   2   3   4    1   2   3   4    1   2   3   4      
e||----------------|----------------|----------------|----------------|| 
B||3p0-----3p0-----|3p0-----3p0-----|3p0-----3p0-----|3p0-----3p0-----|| 
G||------0-0---0---|0---0---0---0---|------0-0---0---|0---0---0---0---|| 
D||----0---------0-|------0-------0-|----0---------0-|------0-------0-|| 
A||--2-------------|----------------|--2-------------|----------------|| 
E||3-let-note-ring-|----------------|3-let-note-ring-|----------------|| 
   C       /                                 / 
   1   2   3   4    1   2   3   4    1   2   3   4    1   2   3   4      
e||----------------|----------------|----------------|----------------|| 
B||3p0-----3p0-----|3p0-----3p0-----|3p0-----3p0-----|3p0-----3p0-----|| 
G||------0-0---0---|0---0---0---0---|------0-0---0---|0---0---0---0---|| 
D||----0---------0-|------0-------0-|----0---------0-|------0-------0-|| 
A||--2-------------|----------------|--2-------------|----------------|| 
E||3-let-note-ring-|----------------|3-let-note-ring-|------------2---|| 

   E min   /                                 / 
   1   2   3   4    1   2   3   4    1   2   3   4    1   2   3   4      
e||0-------0-------|0-------0-------|0-------0-------|0-------0-------|| 
B||--0-------0-----|--0-------0-----|--0-------0-----|--0-------0-----|| 
G||----0-------0---|----0-------0---|----0-------0---|----0-------0---|| 
D||2-----2-------2-|------2-------2-|2-----2-------2-|------2-------2-|| 
A||2---------------|----------------|2---------------|----------------|| 
E||0---------------|----------------|0---------------|----------------|| 

   A       /                                 / 
   1   2   3   4    1   2   3   4    1   2   3   4    1   2   3   4      
e||0-------0-------|0-------0-------|0-------0-------|0-------0-------|| 
B||--1-------1-----|--1-------1-----|--1-------1-----|--1-------1-----|| 
G||----2-------2---|----2-------2---|----2-------2---|----2-------2---|| 
D||------2-------2-|------2-------2-|------2-------2-|------2-------2-|| 
A||0---------------|----------------|0---------------|----------------|| 
E||----------------|----------------|----------------|----------------|| 

   ?       /                                 / 
   1   2   3   4    1   2   3   4    1   2   3   4    1   2   3   4      
e||7-------7-------|7-------7-------|7-------7-------|7-------7-------|| 
B||--7-------7-----|--7-------7-----|--7-------7-----|--7-------7-----|| 
G||----7-------7---|----7-------7---|----7-------7---|----7-------7---|| 
D||4-----4-------4-|------4-------4-|4-----4-------4-|------4-------4-|| 
A||5---------------|----------------|5---------------|----------------|| 
E||----------------|----------------|----------------|----------------|| 

   C       /                                 /  
   1   2   3   4    1   2   3   4    1   2   3   4    1   2   3   4      
e||----------------|----------------|----------------|----------------|| 
B||3p0-----3p0-----|3p0-----3p0-----|3p0-----3p0-----|3p0-----3p0-----|| 
G||------0-0---0---|0---0---0---0---|------0-0---0---|0---0---0---0---|| 
D||----0---------0-|------0-------0-|----0---------0-|------0-------0-|| 
A||--2-------------|----------------|--2-------------|----------------|| 
E||3-let-note-ring-|----------------|3-let-note-ring-|----------------|| 
   C       /                                 / 
   1   2   3   4    1   2   3   4    1   2   3   4    1   2   3   4      
e||----------------|----------------|----------------|----------------|| 
B||3p0-----3p0-----|3p0-----3p0-----|3p0-----3p0-----|3p0-----3p0-----|| 
G||------0-0---0---|0---0---0---0---|------0-0---0---|0---0---0---0---|| 
D||----0---------0-|------0-------0-|----0---------0-|------0-------0-|| 
A||--2-------------|----------------|--2-------------|----------------|| 
E||3-let-note-ring-|----------------|3-let-note-ring-|------------2---|| 

   E min   /                                 / 
   1   2   3   4    1   2   3   4    1   2   3   4    1   2   3   4      
e||0-------0-------|0-------0-------|0-------0-------|0-------0-------|| 
B||--0-------0-----|--0-------0-----|--0-------0-----|--0-------0-----|| 
G||----0-------0---|----0-------0---|----0-------0---|----0-------0---|| 
D||2-----2-------2-|------2-------2-|2-----2-------2-|------2-------2-|| 
A||2---------------|----------------|2---------------|----------------|| 
E||0---------------|----------------|0---------------|----------------|| 

   A       /                                 / 
   1   2   3   4    1   2   3   4    1   2   3   4    1   2   3   4      
e||0-------0-------|0-------0-------|0-------0-------|0-------0-------|| 
B||--1-------1-----|--1-------1-----|--1-------1-----|--1-------1-----|| 
G||----2-------2---|----2-------2---|----2-------2---|----2-------2---|| 
D||------2-------2-|------2-------2-|------2-------2-|------2-------2-|| 
A||0---------------|----------------|0---------------|----------------|| 
E||----------------|----------------|----------------|----------------|| 

   ?       /                                 / 
   1   2   3   4    1   2   3   4    1   2   3   4    1   2   3   4      
e||7-------7-------|7-------7-------|7-------7-------|7-------7-------|| 
B||--7-------7-----|--7-------7-----|--7-------7-----|--7-------7-----|| 
G||----7-------7---|----7-------7---|----7-------7---|----7-------7---|| 
D||4-----4-------4-|------4-------4-|4-----4-------4-|------4-------4-|| 
A||5---------------|----------------|5---------------|----------------|| 
E||----------------|----------------|----------------|----------------|| 

Chorus 
   C       /                /                /                / 
   1   2   3   4    1   2   3   4    1   2   3   4    1   2   3   4      
e||----------------|----------------|----------------|----------------|| 
B||--------1p0-----|--------0-------|--------1p0-----|--------0---x---|| 
G||------0-0---0---|------0-0---0---|------0-0---0---|------0-0---x---|| 
D||----0---0-----0-|----0---0-----0-|----0---0-----0-|----0---0---x---|| 
A||--2-------------|--2-------------|--2-------------|--2---------x---|| 
E||3---------------|3---------------|3---------------|3-----------x---|| 

   Want it so bad...                 G       /                / 
   1   2   3   4    1   2   3   4    1   2   3   4    1   2   3   4      
e||--------2-------|----------------|----------------|----------------|| 
B||0-------3-------|0-------3-------|--------1p0-----|--------0-------|| 
G||0-------2-------|0-------0-------|------0-0---0---|------0-0-------|| 
D||2-------0-------|2-------4-------|0---0---0-----0-|----0---0-------|| 
A||2---------------|3-------5-------|2---------------|--2-------------|| 
E||0---------------|----------------|3---------------|3---------------|| 

   ...never learned...               G       /                / 
   1   2   3   4    1   2   3   4    1   2   3   4    1   2   3   4      
e||--------2-------|----------------|----------------|----------------|| 
B||0-------3-------|3-------1-------|0-------1p0-----|--------0---x---|| 
G||0-------2-------|----------------|0-----0-0---0---|------0-0---x---|| 
D||2-------0-------|----0-------0---|0---0---0-----0-|----0---0---x---|| 
A||2---------------|2---------------|2---------------|--2---------x---|| 
E||0---------------|--------2-------|3---------------|3-----------x---|| 

   Want it so bad...                 G       /                / 
   1   2   3   4    1   2   3   4    1   2   3   4    1   2   3   4      
e||--------2-------|----------------|----------------|----------------|| 
B||0-------3-------|0-------3-------|--------1p0-----|--------0-------|| 
G||0-------2-------|0-------0-------|------0-0---0---|------0-0-------|| 
D||2-------0-------|2-------4-------|0---0---0-----0-|----0---0-------|| 
A||2---------------|3-------5-------|2---------------|--2-------------|| 
E||0---------------|----------------|3---------------|3---------------|| 

   ...never learned...               G       /                / 
   1   2   3   4    1   2   3   4    1   2   3   4    1   2   3   4      
e||--------2-------|----------------|----------------|----------------|| 
B||0-------3-------|3-------1-------|0-------1p0-----|--------0-------|| 
G||0-------2-------|----------------|0-----0-0---0---|------0-0-------|| 
D||2-------0-------|----0-------0---|0---0---0-----0-|----0---0-------|| 
A||2---------------|2---------------|2---------------|--2-------------|| 
E||0---------------|--------2-------|3---------------|3---------------|| 

Verse 
   C       /                                 /  
   1   2   3   4    1   2   3   4    1   2   3   4    1   2   3   4      
e||----------------|----------------|----------------|----------------|| 
B||3p0-----3p0-----|3p0-----3p0-----|3p0-----3p0-----|3p0-----3p0-----|| 
G||------0-0---0---|0---0---0---0---|------0-0---0---|0---0---0---0---|| 
D||----0---------0-|------0-------0-|----0---------0-|------0-------0-|| 
A||--2-------------|----------------|--2-------------|----------------|| 
E||3-let-note-ring-|----------------|3-let-note-ring-|----------------|| 
   C       /                                 / 
   1   2   3   4    1   2   3   4    1   2   3   4    1   2   3   4      
e||----------------|----------------|----------------|----------------|| 
B||3p0-----3p0-----|3p0-----3p0-----|3p0-----3p0-----|3p0-----3p0-----|| 
G||------0-0---0---|0---0---0---0---|------0-0---0---|0---0---0---0---|| 
D||----0---------0-|------0-------0-|----0---------0-|------0-------0-|| 
A||--2-------------|----------------|--2-------------|----------------|| 
E||3-let-note-ring-|----------------|3-let-note-ring-|------------2---|| 

   E min   /                                 / 
   1   2   3   4    1   2   3   4    1   2   3   4    1   2   3   4      
e||0-------0-------|0-------0-------|0-------0-------|0-------0-------|| 
B||--0-------0-----|--0-------0-----|--0-------0-----|--0-------0-----|| 
G||----0-------0---|----0-------0---|----0-------0---|----0-------0---|| 
D||2-----2-------2-|------2-------2-|2-----2-------2-|------2-------2-|| 
A||2---------------|----------------|2---------------|----------------|| 
E||0---------------|----------------|0---------------|----------------|| 

   A       /                                 / 
   1   2   3   4    1   2   3   4    1   2   3   4    1   2   3   4      
e||0-------0-------|0-------0-------|0-------0-------|0-------0-------|| 
B||--1-------1-----|--1-------1-----|--1-------1-----|--1-------1-----|| 
G||----2-------2---|----2-------2---|----2-------2---|----2-------2---|| 
D||------2-------2-|------2-------2-|------2-------2-|------2-------2-|| 
A||0---------------|----------------|0---------------|----------------|| 
E||----------------|----------------|----------------|----------------|| 

   ?       /                                 / 
   1   2   3   4    1   2   3   4    1   2   3   4    1   2   3   4      
e||7-------7-------|7-------7-------|7-------7-------|7-------7-------|| 
B||--7-------7-----|--7-------7-----|--7-------7-----|--7-------7-----|| 
G||----7-------7---|----7-------7---|----7-------7---|----7-------7---|| 
D||4-----4-------4-|------4-------4-|4-----4-------4-|------4-------4-|| 
A||5---------------|----------------|5---------------|----------------|| 
E||----------------|----------------|----------------|----------------|| 

   C       /                                 /  
   1   2   3   4    1   2   3   4    1   2   3   4    1   2   3   4      
e||----------------|----------------|----------------|----------------|| 
B||3p0-----3p0-----|3p0-----3p0-----|3p0-----3p0-----|3p0-----3p0-----|| 
G||------0-0---0---|0---0---0---0---|------0-0---0---|0---0---0---0---|| 
D||----0---------0-|------0-------0-|----0---------0-|------0-------0-|| 
A||--2-------------|----------------|--2-------------|----------------|| 
E||3-let-note-ring-|----------------|3-let-note-ring-|----------------|| 
   C       /                                 / 
   1   2   3   4    1   2   3   4    1   2   3   4    1   2   3   4      
e||----------------|----------------|----------------|----------------|| 
B||3p0-----3p0-----|3p0-----3p0-----|3p0-----3p0-----|3p0-----3p0-----|| 
G||------0-0---0---|0---0---0---0---|------0-0---0---|0---0---0---0---|| 
D||----0---------0-|------0-------0-|----0---------0-|------0-------0-|| 
A||--2-------------|----------------|--2-------------|----------------|| 
E||3-let-note-ring-|----------------|3-let-note-ring-|------------2---|| 

   E min   /                                 / 
   1   2   3   4    1   2   3   4    1   2   3   4    1   2   3   4      
e||0-------0-------|0-------0-------|0-------0-------|0-------0-------|| 
B||--0-------0-----|--0-------0-----|--0-------0-----|--0-------0-----|| 
G||----0-------0---|----0-------0---|----0-------0---|----0-------0---|| 
D||2-----2-------2-|------2-------2-|2-----2-------2-|------2-------2-|| 
A||2---------------|----------------|2---------------|----------------|| 
E||0---------------|----------------|0---------------|----------------|| 

   A       /                                 / 
   1   2   3   4    1   2   3   4    1   2   3   4    1   2   3   4      
e||0-------0-------|0-------0-------|0-------0-------|0-------0-------|| 
B||--1-------1-----|--1-------1-----|--1-------1-----|--1-------1-----|| 
G||----2-------2---|----2-------2---|----2-------2---|----2-------2---|| 
D||------2-------2-|------2-------2-|------2-------2-|------2-------2-|| 
A||0---------------|----------------|0---------------|----------------|| 
E||----------------|----------------|----------------|----------------|| 

   ?       /                                 / 
   1   2   3   4    1   2   3   4    1   2   3   4    1   2   3   4      
e||7-------7-------|7-------7-------|7-------7-------|7-------7-------|| 
B||--7-------7-----|--7-------7-----|--7-------7-----|--7-------7-----|| 
G||----7-------7---|----7-------7---|----7-------7---|----7-------7---|| 
D||4-----4-------4-|------4-------4-|4-----4-------4-|------4-------4-|| 
A||5---------------|----------------|5---------------|----------------|| 
E||----------------|----------------|----------------|----------------|| 

Chorus 
   C       /                /                /                / 
   1   2   3   4    1   2   3   4    1   2   3   4    1   2   3   4      
e||----------------|----------------|----------------|----------------|| 
B||--------1p0-----|--------0-------|--------1p0-----|--------0---x---|| 
G||------0-0---0---|------0-0---0---|------0-0---0---|------0-0---x---|| 
D||----0---0-----0-|----0---0-----0-|----0---0-----0-|----0---0---x---|| 
A||--2-------------|--2-------------|--2-------------|--2---------x---|| 
E||3---------------|3---------------|3---------------|3-----------x---|| 

   Want it so bad...                 G       /                / 
   1   2   3   4    1   2   3   4    1   2   3   4    1   2   3   4      
e||--------2-------|----------------|----------------|----------------|| 
B||0-------3-------|0-------3-------|--------1p0-----|--------0-------|| 
G||0-------2-------|0-------0-------|------0-0---0---|------0-0-------|| 
D||2-------0-------|2-------4-------|0---0---0-----0-|----0---0-------|| 
A||2---------------|3-------5-------|2---------------|--2-------------|| 
E||0---------------|----------------|3---------------|3---------------|| 

   ...never learned...               G       /                / 
   1   2   3   4    1   2   3   4    1   2   3   4    1   2   3   4      
e||--------2-------|----------------|----------------|----------------|| 
B||0-------3-------|3-------1-------|0-------1p0-----|--------0---x---|| 
G||0-------2-------|----------------|0-----0-0---0---|------0-0---x---|| 
D||2-------0-------|----0-------0---|0---0---0-----0-|----0---0---x---|| 
A||2---------------|2---------------|2---------------|--2---------x---|| 
E||0---------------|--------2-------|3---------------|3-----------x---|| 

   Want it so bad...                 G       /                / 
   1   2   3   4    1   2   3   4    1   2   3   4    1   2   3   4      
e||--------2-------|----------------|----------------|----------------|| 
B||0-------3-------|0-------3-------|--------1p0-----|--------0-------|| 
G||0-------2-------|0-------0-------|------0-0---0---|------0-0-------|| 
D||2-------0-------|2-------4-------|0---0---0-----0-|----0---0-------|| 
A||2---------------|3-------5-------|2---------------|--2-------------|| 
E||0---------------|----------------|3---------------|3---------------|| 

   ...never learned...               G       /                / 
   1   2   3   4    1   2   3   4    1   2   3   4    1   2   3   4      
e||--------2-------|----------------|----------------|----------------|| 
B||0-------3-------|3-------1-------|0-------1p0-----|--------0-------|| 
G||0-------2-------|----------------|0-----0-0---0---|------0-0-------|| 
D||2-------0-------|----0-------0---|0---0---0-----0-|----0---0-------|| 
A||2---------------|2---------------|2---------------|--2-------------|| 
E||0---------------|--------2-------|3---------------|3---------------|| 

Outro 
   ...never learned...               G       /                / 
   1   2   3   4    1   2   3   4    1   2   3   4    1   2   3   4      
e||--------2-------|----------------|----------------|----------------|| 
B||0-------3-------|3-------1-------|0-------1p0-----|--------0-------|| 
G||0-------2-------|----------------|0-----0-0---0---|------0-0-------|| 
D||2-------0-------|----0-------0---|0---0---0-----0-|----0---0-------|| 
A||2---------------|2---------------|2---------------|--2-------------|| 
E||0---------------|--------2-------|3---------------|3---------------|| 



************************************ 

| p  Pull-off 
| h  Hammer-on 
| x  Dead note 

************************************ 
    	
fixar
fixar inscrever-se

enviado porenviado por: LINEKERS
cifra enviadaCorrigida por: sem correções
logo top cifrasComente
ico música do artistaMúsicas deste artista
ico curtiuCurtiu?
ico destaqueDestaque
Petaxxon Comunicação Online

Cifras.com.br - Melhor e mais completo site de cifras e tablaturas do Brasil Mais de 1 milhão de acordes de músicas cadastradas desde 2003
As informações contidas no nosso site são colaborações de seus usuários e podem conter erros, sendo assim, não nos responsabilizamos sobre nenhuma destas.

close
menos
mais
close
Cor dos acordes:

Cor da letra:

close
Alinhar acordes a direita Alinhar acordes a esquerda Alinhar acordes em baixo Alinhar acordes no topo
close
  Mostrar todos os acordes Esconder acordes muito fáceis Esconder acordes fáceis Esconder acordes intermediários
redimensionar
glossário