Cifras e Tablaturas
Ady Suleiman

Ady Suleiman

Serious

Cifras Cancelar Versão de Impressão
cifras

Ady Suleiman - Serious

fixar na tela  
Exibindo: vídeo-aula ver clipes redimensionar

Tom:

Cm

ver outros tons
  
Intro 
E|--------------------|-----------------|------------------------|--------------------| 
B|--------------------|-----------------|------------------------|--------------------| 
G|--------------------|-----------------|------------------------|--------------------| 
D|-----10-10-10----10-|---10-10-10---10-|-------10-10-10------10-|----10-10----9--9---| 
A|--------------------|-----------------|--11-------------11-----|-10-------10--------| 
E|--8-----------8-----|-8----------8----|------------------------|--------------------| 
        
Verse 
I'm chilling with you day and night and i'm enjoying most this time that we're spending together 
E|--------------------|-----------------|------------------------|--------------------| 
B|--------------------|-----------------|------------------------|--------------------| 
G|--------------------|-----------------|------------------------|--------------------| 
D|-----10-10-10----10-|---10-10-10---10-|-------10-10-10------10-|----10-10----9--9---| 
A|--------------------|-----------------|--11-------------11-----|-10-------10--------| 
E|--8-----------8-----|-8----------8----|------------------------|--------------------| 

But remember when yeah you and I, agreed that we just want some fun and we don't wanna be forever 
E|--------------------|-----------------|------------------------|--------------------| 
B|--------------------|-----------------|------------------------|--------------------| 
G|--------------------|-----------------|------------------------|--------------------| 
D|-----10-10-10----10-|---10-10-10---10-|-------10-10-10------10-|----10-10----9--9---| 
A|--------------------|-----------------|--11-------------11-----|-10-------10--------| 
E|--8-----------8-----|-8----------8----|------------------------|--------------------| 

You said nothing's changed, but you don't act the saaame you,  
E|--------------------|-------------------| 
B|--------------------|-------------------| 
G|-----8--8--8-----8--|---8--8--8----8----| 
D|-----10-10-10----10-|---10-10-10---10---| 
A|--------------------|-------------------| 
E|--8-----------8-----|-8----------8------| 

Keep telling me, what I can or cannot do 
E|-----------------------|-----------------------| 
B|-----------------------|-----------------------| 
G|------12-12-12------12-|----10-10----10-10-----| 
D|------10-10-10------10-|----9--9-----9--9------| 
A|--11------------11-----|-10-------10-----------| 
E|-----------------------|-----------------------| 

So won't please, stop telling me the truth  
E|--------------------|-------------------| 
B|--------------------|-------------------| 
G|-----8--8--8-----8--|---8--8--8----8----| 
D|-----10-10-10----10-|---10-10-10---10---| 
A|--------------------|-------------------| 
E|--8-----------8-----|-8----------8------| 

Cause it's hurt for me and you              
E|-----------------------|----------------| 
B|-----------------------|----------------| 
G|------12-12-12------12-|-10-------------| 
D|------10-10-10------10-|--9-------------| 
A|--11------------11-----|-10-------------| 
E|-----------------------|----------------| 

Chorus 
So when, well, you, start to hear my voice speak so I can say what's on my mind 
E|--8------------------------|--3-----------------|--4--------3----------------|--------------------| 
B|--8------------------------|--4-----------------|--3--------3----------------|-----3--4------3----| 
G|--8------------------------|--5-----------------|--4--------4----------------|-----3--3------3----| 
D|-10------------------------|--6-----------------|--3--------3----------------|-----1--1------1----| 
A|-10------------------------|--------------------|----------------------------|-----3--3------3----| 
E|--8------------------------|--------------------|----------------------------|--------------------| 

You don't want to listen to me, cause you're scared that I might me right 
E|---------------|--3----------------------|--4---3-----------------------|-8-------| 
B|---------------|--4----------------------|--3---3-----------------------|-8-------| 
G|---------------|--5----------------------|--4---4-----------------------|-8-------| 
D|---------------|--6----------------------|--3---3-----------------------|-10------| 
A|---------------|-------------------------|------------------------------|-10------| 
E|---------------|-------------------------|------------------------------|-8-------| 

Verse 
See you don't want to talk no more, why you're acting like a full fool 
E|------8-------| 
B|------8-------| 
G|------8-------| 
D|------10------| 
A|------10------| 
E|------8-------| 

Still one thing going one, just don't want a relation ship 
E|------------------------------------|--------------------| 
B|----------11------------------------|-11-----8-----------| 
G|----------12------------------------|-10-----10----------| 
D|----------10------------------------|-9------9-----------| 
A|----------11------------------------|-10-----10----------| 
E|------------------------------------|--------------------| 

Cause i'm gonna quit that shit and if I don't you know is it 
E|---------------------------|-8---------------------------------| 
B|---------------------------|-8---------------------------------| 
G|---------------------------|-8---------------------------------| 
D|----------------------x--x-|-10--------------------------------| 
A|---------------------------|-10--------------------------------| 
E|-6-7-8---------------------|-8---------------------------------| 

At least i'm trying to be logic, I'll be right straight with you don't flip 
E|----------------------------------------------|-------------------------|-------------------| 
B|----------11----------------------------------|-11----------------------|-8---7\8---7\8-----| 
G|----------12----------------------------------|-10----------------------|-10--9\10--9\10----| 
D|----------10----------------------------------|-9-----------------------|-9---8\9---8\9-----| 
A|----------11----------------------------------|-10----------------------|-10--9\10--9\10----| 
E|----------------------------------------------|-------------------------|-------------------| 

Cm                             Cm                                           
And I can't no more with this, you're crying every time I go out on a chek 
Ab7                                               G7 
Why you're crying for this, what did I miss? Am i taking the piece now you're my mestress 
Cm                             Cm 
That's not for what we agree, why you making me feel gulty 
Ab7           G7 
I did nothing wrooong 

Chorus 
So when, well, you, start to hear my voice speak so I can say what's on my mind 
E|--8------------------------|--3-----------------|--4--------3----------------|--------------------| 
B|--8------------------------|--4-----------------|--3--------3----------------|-----3--4------3----| 
G|--8------------------------|--5-----------------|--4--------4----------------|-----3--3------3----| 
D|-10------------------------|--6-----------------|--3--------3----------------|-----1--1------1----| 
A|-10------------------------|--------------------|----------------------------|-----3--3------3----| 
E|--8------------------------|--------------------|----------------------------|--------------------| 

You don't want to listen to me, cause you're scared that I might me right 
E|--------------------3----------------------|-4---3--------------------------| 
B|--------------------4----------------------|-3---3--------------------------| 
G|--------------------5----------------------|-4---4--------------------------| 
D|--------------------6----------------------|-3---3--------------------------| 
A|-------------------------------------------|--------------------------------| 
E|-------------------------------------------|--------------------------------| 

Bridge 
Oh no no no     I can't well, I can't do this no more  
E|--8-----------------|-3---------|-3----------| 
B|--8-----------------|-4---------|-4---6--8---| 
G|--8-----------------|-3---------|-3---7--8---| 
D|--6-----------------|-5---------|-5---8--8---| 
A|--8-----------------|-3---------|-3----------| 
E|--------------------|-----------|------------| 

No no     we got to ? 
E|--8-------------------| 
B|--8-------------------| 
G|--8-------------------| 
D|--6-------------------| 
A|--8-------------------| 
E|----------------------| 

Verse (x2) 
So why can't things stay as they were why do you have to cry over 
E|--------------------|-----------------|------------------------|--------------------| 
B|--------------------|-----------------|------------------------|--------------------| 
G|--------------------|-----------------|------------------------|--------------------| 
D|-----10-10-10----10-|---10-10-10---10-|-------10-10-10------10-|----10-10----9--9---| 
A|--------------------|-----------------|--11-------------11-----|-10-------10--------| 
E|--8-----------8-----|-8----------8----|------------------------|--------------------| 

Situation that are my know we both agree not to get serious 
E|--------------------|-----------------|------------------------|--------------------| 
B|--------------------|-----------------|------------------------|--------------------| 
G|--------------------|-----------------|------------------------|--------------------| 
D|-----10-10-10----10-|---10-10-10---10-|-------10-10-10------10-|----10-10----9--9---| 
A|--------------------|-----------------|--11-------------11-----|-10-------10--------| 
E|--8-----------8-----|-8----------8----|------------------------|--------------------| 

Chorus 
So when, well, you, start to hear my voice speak so I can say what's on my mind 
E|--8------------------------|--3-----------------|--4--------3----------------|--------------------| 
B|--8------------------------|--4-----------------|--3--------3----------------|-----3--4------3----| 
G|--8------------------------|--5-----------------|--4--------4----------------|-----3--3------3----| 
D|-10------------------------|--6-----------------|--3--------3----------------|-----1--1------1----| 
A|-10------------------------|--------------------|----------------------------|-----3--3------3----| 
E|--8------------------------|--------------------|----------------------------|--------------------| 

You don't want to listen to me, cause you're scared that I might me right 
E|--------------------3----------------------|-4---3--------------------------| 
B|--------------------4----------------------|-3---3--------------------------| 
G|--------------------5----------------------|-4---4--------------------------| 
D|--------------------6----------------------|-3---3--------------------------| 
A|-------------------------------------------|--------------------------------| 
E|-------------------------------------------|--------------------------------| 


************************************ 

| x  Dead note 
| \  Slide down 

************************************ 
  

cifra enviadasem correções
enviado porenviada por:jov-correa
top 5 | ady suleiman
top rock'n roll
Outras músicas do artista letras do(a) Ady Suleiman
Top cifras »Top artistas »
Petaxxon Comunicação Online
Cifras.com.br - Melhor e mais completo site de cifras e tablaturas do Brasil
Mais de 1 milhão de acordes de músicas cadastradas desde 2003
As informações contidas no nosso site são colaborações de seus usuários e podem conter erros, sendo assim, não nos responsabilizamos sobre nenhuma destas.
close
menos
mais
close
Cor dos acordes:

Cor da letra:

 

save
close
close
 
redimensionar