Cifras e Tablaturas
Aeseaes

Aeseaes

Rilke Song

Cifras Cancelar Versão de Impressão
cifras

Aeseaes - Rilke Song

fixar na tela  
Exibindo: vídeo-aula ver clipes redimensionar

Tom:

  
Intro 
E|-----------------|-----------------|-----------------|-----------------| 
B|-----------------|-----------------|-----------------|-----------------| 
G|---0---0---0---0-|---0---0---0---0-|---0---0---0---0-|---0---0---0---0-| 
D|-----------------|-----------------|-----------------|-----------------| 
A|-----------------|-----------------|-----------------|-----------------| 
E|-3---3---3---3---|-5---5---5---5---|-0---0---0---0---|-8---8---8---8---| 

E|-----------------|-----------------|-----------------|-----------------|-----------------| 
B|-----------------|-----------------|-----------------|-----------------|-----------------| 
G|---0---0---0---0-|---0---0---0---0-|---0---0---0---0-|---0---0---0---0-|---0---0---0---0-| 
D|-----------------|-----------------|-----------------|-----------------|-----------------| 
A|-----------------|-----------------|-----------------|-----------------|-----------------| 
E|-3---3---3---3---|-5---5---5---5---|-0---0---0---0---|-8---8---8---8---|-8---8---8---8---| 

E|-----------------|-----------------|-----------------|-----------------| 
B|-----------------|-----------------|-----------------|-----------------| 
G|---0---0---0---0-|---0---0---0---0-|---0---0---0---0-|---0---0---0---0-| 
D|-----------------|-----------------|-----------------|-----------------| 
A|-2---2---2---2---|-3---3---3---3---|-7---7---7---7---|-5---5---5---5---| 
E|-----------------|-----------------|-----------------|-----------------| 

E|-----------------|-----------------|-----------------|-----------------| 
B|-----------------|-----------------|-----------------|-----------------| 
G|---0---0---0---0-|---0---0---0---0-|---0---0---0---0-|---0---0---0---0-| 
D|-----------------|-----------------|-----------------|-----------------| 
A|-----------------|-----------------|-----------------|-----------------| 
E|-3---3---3---3---|-3---3---3---3---|-3---3---3---3---|-3---3---3---3---| 

verse 1 
E|-----------------|-----------------|-----------------|-----------------| 
B|-----------------|-----------------|-----------------|-----------------| 
G|---0---0---0---0-|---0---0---0---0-|---0---0---0---0-|---0---0---0---0-| 
D|-----------------|-----------------|-----------------|-----------------| x6 
A|-----------------|-----------------|-----------------|-----------------| 
E|-3---3---3---3---|-5---5---5---5---|-0---0---0---0---|-8---8---8---8---| 
   how     did   we  get     here  and what    does  it  mean ... 

how did we get here and what does it mean 
who said it must be and when can we dream 

the world outside is cold and bright but when you take a breath 
you’ll inhale the sunlight and exhale the rest 

verse 2 
E|-----------------|-----------------|-----------------|-----------------| 
B|-----------------|-----------------|-----------------|-----------------| 
G|---0---0---0---0-|---0---0---0---0-|---0---0---0---0-|---0---0---0---0-| 
D|-----------------|-----------------|-----------------|-----------------| x6 
A|-----------------|-----------------|-----------------|-----------------| 
E|-3---3---3---3---|-5---5---5---5---|-0---0---0---0---|-8---8---8---8---| 

we give up ourselves until love leaves a bruise 
invest in some chain mail to withstand abuse 

but what if love is more than just the sum of what it costs 
you yearn for the part of yourself you thought you’d lost 

Pre-Chorus Interlude 
E|-----------------|-----------------|-----------------|-----------------| 
B|-----------------|-----------------|-----------------|-----------------| 
G|---0---0---0---0-|---0---0---0---0-|---0---0---0---0-|---0---0---0---0-| 
D|-----------------|-----------------|-----------------|-----------------| x2 
A|-2---2---2---2---|-3---3---3---3---|-7---7---7---7---|-5---5---5---5---| 
E|-----------------|-----------------|-----------------|-----------------| 

Chorus 
E|-----------------|-----------------|-----------------|-----------------| 
B|-----------------|-----------------|-----------------|-----------------| 
G|---0---0---0---0-|---0---0---0---0-|---0---0---0---0-|---0---0---0---0-| 
D|-----------------|-----------------|-----------------|-----------------| x4 
A|-2---2---2---2---|-3---3---3---3---|-7---7---7---7---|-5---5---5---5---| 
E|-----------------|-----------------|-----------------|-----------------| 
.. o-o-o-o-o-o-o-o---older     than we used        to be               and... 

we’re older than we used to be 
and closer to the ground beneath 
maybe we’ve got all the time to grow 
maybe we’ve got all the time and maybe we don’t, no 

Post-Chorus Interlude 
E|-----------------|-----------------|-----------------|-----------------| 
B|-----------------|-----------------|-----------------|-----------------| 
G|---0---0---0---0-|---0---0---0---0-|---0---0---0---0-|---0---0---0---0-| 
D|-----------------|-----------------|-----------------|-----------------| 
A|-----------------|-----------------|-----------------|-----------------| 
E|-3---3---3---3---|-5---5---5---5---|-0---0---0---0---|-8---8---8---8---| 

{verse 3 
E|-----------------|-----------------|-----------------|-----------------| 
B|-----------------|-----------------|-----------------|-----------------| 
G|---0---0---0---0-|---0---0---0---0-|---0---0---0---0-|---0---0---0---0-| 
D|-----------------|-----------------|-----------------|-----------------| x6 
A|-----------------|-----------------|-----------------|-----------------| 
E|-3---3---3---3---|-5---5---5---5---|-0---0---0---0---|-8---8---8---8---| 

in spite of our failures the lines twist and curve 
to regrow the branches the night has disturbed 

but when we wake or take the shame of something free and bold 
and rest in the shade where the new greets the old 

Pre-Chorus Interlude 
E|-----------------|-----------------|-----------------|-----------------| 
B|-----------------|-----------------|-----------------|-----------------| 
G|---0---0---0---0-|---0---0---0---0-|---0---0---0---0-|---0---0---0---0-| 
D|-----------------|-----------------|-----------------|-----------------| x2 
A|-2---2---2---2---|-3---3---3---3---|-7---7---7---7---|-5---5---5---5---| 
E|-----------------|-----------------|-----------------|-----------------| 

Chorus 
E|-----------------|-----------------|-----------------|-----------------| 
B|-----------------|-----------------|-----------------|-----------------| 
G|---0---0---0---0-|---0---0---0---0-|---0---0---0---0-|---0---0---0---0-| 
D|-----------------|-----------------|-----------------|-----------------| x4 
A|-2---2---2---2---|-3---3---3---3---|-7---7---7---7---|-5---5---5---5---| 
E|-----------------|-----------------|-----------------|-----------------| 

we’re older than we used to be 
and closer to the ground beneath 
maybe we’ve got all the time to grow 
maybe we’ve got all the time and maybe we don’t 

E|-----------------| 
B|-----------------| 
G|-----------------| 
D|-----------------| 
A|-----------------| 
E|-3---------------| 
  

top 5 | aeseaes
top rock'n roll
Outras músicas do artista letras do(a) Aeseaes
Top cifras »Top artistas »
Petaxxon Comunicação Online
Cifras.com.br - Melhor e mais completo site de cifras e tablaturas do Brasil
Mais de 1 milhão de acordes de músicas cadastradas desde 2003
As informações contidas no nosso site são colaborações de seus usuários e podem conter erros, sendo assim, não nos responsabilizamos sobre nenhuma destas.
close
menos
mais
close
Cor dos acordes:

Cor da letra:

 

save
close
close
 
redimensionar