Cifras e Tablaturas
Agnostic Front

Agnostic Front

Traitor

Cifras Cancelar Versão de Impressão
cifras

Agnostic Front - Traitor

fixar na tela  
Exibindo: vídeo-aula ver clipes redimensionar

Tom:

  
e|----|----|----------------------------|----------------------------| 
B|----|----|----------------------------|----------------------------| 
G|----|----|--------------7--7----------|--------------7--7----------| 
D|----|----|--9--9--------7--7----------|--9--9--------7--7----------| 
A|----|----|--9--9--------5--5----------|--9--9--------5--5----------| 
E|----|----|--7--7----------------------|--7--7----------------------| 


e|----------------------------|----------------------------|----------------| 
B|----------------------------|----------------------------|----------------| 
G|--------------7--7----------|--------------7--7----------|--10-9--10-9----| 
D|--9--9--------7--7----------|--9--9--------7--7----------|--10-9--10-9----| 
A|--9--9--------5--5----------|--9--9--------5--5----------|--8--7--8--7----| 
E|--7--7----------------------|--7--7----------------------|----------------| 


e|----------------|----------------------------|----------------------------| 
B|----------------|----------------------------|----------------------------| 
G|--10-9--10-9----|--------------5--7----------|--------------9--7----------| 
D|--10-9--10-9----|--7--7--7--7--5--7----------|--7--7--7--7--9--7----------| 
A|--8--7--8--7----|--7--7--7--7--3--5----------|--7--7--7--7--7--5----------| 
E|----------------|--5--5--5--5----------------|--5--5--5--5----------------| 


e|----------------------------|----------------------------|----------------| 
B|----------------------------|----------------------------|----------------| 
G|--------------5--7----------|--------------9--7----------|--10-9--10-9----| 
D|--7--7--7--7--5--7----------|--7--7--7--7--9--7----------|--10-9--10-9----| 
A|--7--7--7--7--3--5----------|--7--7--7--7--7--5----------|--8--7--8--7----| 
E|--5--5--5--5----------------|--5--5--5--5----------------|----------------| 


e|----------------|----------------------------|----------------------------| 
B|----------------|----------------------------|----------------------------| 
G|--10-9--10-9----|--------------7--7--7--7----|--------------7--7--7--7----| 
D|--10-9--10-9----|--9--9--9--9--7--7--7--7----|--9--9--9--9--7--7--7--7----| 
A|--8--7--8--7----|--9--9--9--9--5--5--5--5----|--9--9--9--9--5--5--5--5----| 
E|----------------|--7--7--7--7----------------|--7--7--7--7----------------| 


e|----------------------------|----------------------------|----------------| 
B|----------------------------|----------------------------|----------------| 
G|--------------7--7--7--7----|--------------7--7--7--7----|--10-9--10-9----| 
D|--9--9--9--9--7--7--7--7----|--9--9--9--9--7--7--7--7----|--10-9--10-9----| 
A|--9--9--9--9--5--5--5--5----|--9--9--9--9--5--5--5--5----|--8--7--8--7----| 
E|--7--7--7--7----------------|--7--7--7--7----------------|----------------| 


e|----------------|----------------------------|----------------------------| 
B|----------------|----------------------------|----------------------------| 
G|--10-9--10-9----|--------------5--7----------|--------------9--7----------| 
D|--10-9--10-9----|--7--7--7--7--5--7----------|--7--7--7--7--9--7----------| 
A|--8--7--8--7----|--7--7--7--7--3--5----------|--7--7--7--7--7--5----------| 
E|----------------|--5--5--5--5----------------|--5--5--5--5----------------| 


e|----------------------------|----------------------------|-------|| 
B|----------------------------|----------------------------|-------|| 
G|--------------5--7----------|--------------9--7----------|-------|| 
D|--7--7--7--7--5--7----------|--7--7--7--7--9--7----------|-------|| 
A|--7--7--7--7--3--5----------|--7--7--7--7--7--5----------|-------|| 
E|--5--5--5--5----------------|--5--5--5--5----------------|-------|| 
  

top 5 | agnostic front
top rock'n roll
Outras músicas do artista letras do(a) Agnostic Front
Top cifras »Top artistas »
Petaxxon Comunicação Online
Cifras.com.br - Melhor e mais completo site de cifras e tablaturas do Brasil
Mais de 1 milhão de acordes de músicas cadastradas desde 2003
As informações contidas no nosso site são colaborações de seus usuários e podem conter erros, sendo assim, não nos responsabilizamos sobre nenhuma destas.
close
menos
mais
close
Cor dos acordes:

Cor da letra:

 

save
close
close
 
redimensionar