Cifras e Tablaturas
Airbourne

Airbourne

Thin The Blood

Cifras Cancelar Versão de Impressão
cifras

Airbourne - Thin The Blood

fixar na tela  
Exibindo: vídeo-aula ver clipes redimensionar

Tom:

  
Intro 
e|---------------------------------|---------------------------------| 
B|---------------------------------|---------------------------------| 
G|-----2-2-------------------------|-----2-2-------------------------| played 2x 
D|-----2-2-------------------------|-----2-2-------------------------| let the last chord ring the second time 
A|-3p0-0-0-------------------------|-3p0-0-0-------------------------| 
E|---------------------------------|---------------------------------| 


e|---------------------------------|---------------------------------| 
B|---------------------------------|---------------------------------| 
G|-------2---2-------2-------------|-------2---2-------2-------------| played 2x 
D|-------2---2-------2---0-1p0-----|-------2---2-------2---0-1p0-----| 
A|-3p0-0-0---0-3p0-0-0---------3p0-|-3p0-0-0---0-3p0-0-0---------3p0-| 
E|---------------------------------|---------------------------------| 

Section 1 
e|---------------------------------|---------------------------------| 
B|---------------------------------|---------------------------------| 
G|-----2-2-------------------------|-----2-2-------------------------| played 2x 
D|-----2-2---------------------x-x-|-----2-2---------------------x-x-| 
A|-3p0-0-0---------------------x-x-|-3p0-0-0---------------------x-x-| 
E|---------------------------------|---------------------------------| 

e|---------------------------------|---------------------------------| 
B|---------------------------------|---------------------------------| 
G|-----2-2---------2-2-------------|---------------------------------| 
D|-----2-2-x-x-----2-2-x-x-x---x---|-----2-2-x-x-----2-2-x-x-x---x---| 
A|-3p0-0-0-x-x-3p0-0-0-x-x-x---x---|-----2-2-x-x-----2-2-x-x-x---x---| 
E|---------------------------------|-3p0-0-0-----3p0-0-0-------------| 

e|---------------------------------|---------------------------------| 
B|-----3-3---------3-3-----3-------|---------------------------------| 
G|-----2-2---------2-2-----2-------|-----2-2---------2-2-------------| 
D|-3p0-0-0-x-x-3p0-0-0-x-x-0-------|-----2-2-x-x-----2-2-x-x---------| 
A|---------x-x---------x-x-----3---|-3p0-0-0-x-x-3p0-0-0-x-x---------| 
E|---------------------------------|-------------------------3---4---| 

e|---------------------------------|---------------------------------| 
B|---------------------------------|---------------------------------| 
G|-----2-2---2-----2-2-----2---2---|---------------------------------| 
D|-----2-2---2-----2-2-----2---2---|-----2-2---2-----2-2-----2---2---| 
A|-3p0-0-0---0-3p0-0-0-----0---0---|-----2-2---2-----2-2-----2---2---| 
E|---------------------------------|-3p0-0-0---0-3p0-0-0-----0---0---| 

e|---------------------------------|---------------------------------| 
B|-----3-3---3-----3-3-----3-------|---------------------------------| 
G|-----2-2---2-----2-2-----2-------|-----2-2---2-----2-2-------------| 
D|-3p0-0-0---0-3p0-0-0-----0-------|-----2-2---2-----2-2-------------| 
A|-----------------------------3---|-3p0-0-0---0-3p0-0-0-----3---4---| 
E|---------------------------------|---------------------------------| 

e|---------------------------------|---------------------------------| 
B|-3---3-3---3-3-----------3---3---|-3---3-3---3-3-----------3-------| 
G|-2---2-2---2-2-----------2---0---|-2---2-2---2-2-----------2-------| 
D|-0---0-0---0-0-----------0---0---|-0---0-0---0-0-----------0-------| 
A|-----------------3---------------|-----------------3---------------| 
E|---------------------3-----------|---------------------3-----------| 

e|---------------------------------|---------------------------------| 
B|---------------------------------|---------------------------------| 
G|-----2-2---------2-2-------------|-----2-2---------2-2-------------| 
D|-----2-2-x-x-----2-2-x-x-1p0-----|-----2-2-x-x-----2-2-x-x-1p0-----| 
A|-3p0-0-0-x-x-3p0-0-0-x-x-----3p0-|-3p0-0-0-x-x-3p0-0-0-x-x-----3p0-| 
E|---------------------------------|---------------------------------| 

e|---------------------------------|---------------------------------| 
B|-3---3-3---3-3-----------3---3---|-3---3-3---3-3-----------3-------| 
G|-2---2-2---2-2-----------2---0---|-2---2-2---2-2-----------2-------| 
D|-0---0-0---0-0-----------0---0---|-0---0-0---0-0-----------0---x-x-| 
A|-----------------3---------------|-----------------3-----------x-x-| 
E|---------------------3-----------|---------------------3-----------| 

e|---------------------------------|---------------------------------| 
B|-----------------3---------------|---------------------------------| 
G|-----------------2---2-----------|-5-----------5-----7-----5---7---| 
D|-2---2-2---2-2---0---2---2-------|-5---x-5---x-5---x-7---x-5---7---| 
A|-2---2-2---2-2-------0---2-------|-3---x-5---x-3---x-5---x-3---5---| 
E|-0---0-0---0-0-----------0-------|-------3-------------------------| 

e|---------------------------------|---------------------------------| 
B|---------------------------------|---------------------------------| 
G|-----2-2---2-----2-2-------------|-----2-2---2-----2-2-------------| played 2x 
D|-----2-2---2-----2-2-x-x-1p0-----|-----2-2---2-----2-2-x-x-1p0-----| 
A|-3p0-0-0---0-3p0-0-0-x-x-----3p0-|-3p0-0-0---0-3p0-0-0-x-x-----3p0-| 
E|---------------------------------|---------------------------------| 

end of Section 1 

first time after finishing section 1: 
play this once and then repeat the entire section 1 

e|---------------------------------|---------------------------------| 
B|---------------------------------|---------------------------------| 
G|-----2-2-------------------------|-----2-2-------------------------| 
D|-----2-2---------------------x-x-|-----2-2---------------------x-x-| 
A|-3p0-0-0---------------------x-x-|-3p0-0-0---------------------x-x-| 
E|---------------------------------|-----------------------x\\\\\----| 

second time after finishing section 1: 
continue here 

e|---------------------------------|---------------------------------| 
B|---------------------------------|-3---3-------3-------3---3-------| 
G|---------------------------------|-2---2-------2-------2---2-------| 
D|-5---5-5---5-5-------5---5---6---|-0---0-------0-------0---0-------| 
A|-3---3-2---2-3-------3---3---4---|-------3---3-----------------2---| 
E|---------------------------------|---------------------------------| 

e|---------------------------------|-------3---3-------3---3-----3---| 
B|---------------------------------|-3---3-3---3-3---3-3---3-3---3---| 
G|---------------------------------|-2---2-0---0-2---2-0---0-2---0---| 
D|-5---5-5---5-5-------5---5---6---|-0---0-0---0-0---0-0---0-0---0---| 
A|-3---3-2---2-3-------3---3---4---|---------------------------------| 
E|---------------------------------|-------3---3-------3---3-----3---| 

e|---------------------------------|---------------------------------| 
B|---------------------------------|-3---3-------3-------3---3-------| 
G|---------------------------------|-2---2-------2-------2---2-------| 
D|-5---5-5---5-5-------5---5---6---|-0---0-------0-------0---0-------| 
A|-3---3-2---2-3-------3---3---4---|-------3---3-----------------2---| 
E|---------------------------------|---------------------------------| 

e|---------------------------------|-------0-----0---0-0-0-0---------| 
B|---------------------------------|-------0-----0---0-0-0-0-3-3-3---| 
G|---------------------------------|-------------------------2-2-2---| 
D|-5---5-5---5-5-------5---5---5---|-2---2-2-----2---2-2-2-2-0-0-0---| 
A|-3---3-2---2-3-------3---3---3---|-2---2-2-----2---2-2-2-2-0-0-0---| 
E|---------------------------------|-0---0-0-----0---0-0-0-0---------| 

Solo 
   1 . 2 . 3 . 4 . 5 . 6 . 7 . 8 .   1 . 2 . 3 . 4 . 5 . 6 . 7 . 8 . 
e|---------------------------------|-------------5-5-----------------| 
B|---------------------------------|-----------------8p5-------------| 
G|-------------------------5-------|---------------------7---5~------| 
D|-------------5b------7-----7~----|-----------------------7---------| 
A|---------------------------------|---------------------------------| 
E|---------------------------------|---------------------------------| 

   1 . 2 . 3 . 4 . 5 . 6 . 7 . 8 .   1 . 2 . 3 . 4 . 5 . 6 . 7 . 8 . 
e|-------------------5-------------|---------------------------------| 
B|-----------------5---8-5-7b8-----|---------5-7b8r7p5---------------| 
G|-------------5h7-----------------|-------------------7-7p5---------| 
D|---------------------------------|-------------------------7---7~--| 
A|---------------------------------|---------------------------------| 
E|---------------------------------|---------------------------------| 

   1 . 2 . 3 . 4 . 5 . 6 . 7 . 8 .   1 . 2 . 3 . 4 . 5 . 6 . 7 . 8 . 
e|---------------------------------|---------------------------------| 
B|-------7-----------7-------------|-------7-----------7-------------| 
G|-5h6---7-----5h6---7-----5h6-----|-5h6---7-----5h6---7-----5h6-----| 
D|-----7-----7-----7-----7-----7---|-----7-----7-----7-----7-----7---| 
A|---------------------------------|---------------------------------| 
E|---------------------------------|---------------------------------| 

   1 . 2 . 3 . 4 . 5 . 6 . 7 . 8 .   1 . 2 . 3 . 4 . 5 . 6 . 7  .  8 . 
e|---------------------------------|------------------------------------| 
B|-------7-----------7-------------|------------------------------------| 
G|-5h6---7-----5h6---7-----5h6p5---|-8p5-7p5-----8p5-7p5-5///17h19-17---| 
D|-----7-----7-----7-----7-------7-|---------7p5------------------------| 
A|---------------------------------|------------------------------------| 
E|---------------------------------|------------------------------------| 

   1  .  2  .  3  .  4  .  5  .  6  .  7  .  8  .    1  .  2  .  3  .  4    .    5  .  6  .  7  .  8  . 
e|-------------------------------------------------|-----------------------------------------------------| 
B|-20b22---b22~------20p17-------------------------|-20----20-20-----------------------------------------| 
G|-------------------------19p17-------------------|-19b21----19b21~--b21r19p17--19p17-------------------| 
D|-------------------------------19----19~---------|-----------------------------------19----19~---------| 
A|-------------------------------------------------|-----------------------------------------------------| 
E|-------------------------------------------------|-----------------------------------------------------| 

   1  .  2  .  3  .  4  .  5  .  6  .  7  .  8  .    1  .  2  .  3  .  4  .  5  .  6  .  7  .  8  . 
e|-------------------------------------------------|-20p17----20p17----20p17----20p17----20b22~------| 
B|-20p17----20p17----20p17----20p17----20p17-20-20-|-------19-------19-------19-------19-------------| 
G|-------19-------19-------19-------19-------------|-------------------------------------------------| 
D|-------------------------------------------------|-------------------------------------------------| 
A|-------------------------------------------------|-------------------------------------------------| 
E|-------------------------------------------------|-------------------------------------------------| 

   1 . 2 . 3 . 4 . 5 . 6 . 7 . 8 .   1 . 2 . 3 . 4 . 5 . 6 . 7 . 8 . 
e|---------------------------------|---------------------------------| 
B|---------------------------------|---------------------------------| 
G|-2---4-4b5r4-4p2-5p2-4p2-2---x-x-|-2---4-4b5r4-2-2-5p4p2---2-------| 
D|------------------------4----x-x-|-----------------------4---------| 
A|---------------------------------|---------------------------------| 
E|---------------------------------|---------------------------------| 

   1 . 2 . 3 . 4 . 5 . 6 . 7 . 8 .   1 . 2 . 3 . 4 . 5 . 6 . 7 . 8 . 
e|---------------------------------|---------------------------------| 
B|-8b10~---------7-(---bend---)----|---------------------------------| 
G|---------------7-(--slowly--)----|-5-----7---7---------------------| 
D|---------------------------------|-----7-------7~----------////----| 
A|---------------------------------|---------------------------------| 
E|---------------------------------|---------------------------------| 

   1 . 2 . 3 . 4 . 5 . 6 . 7 . 8 .   1 . 2 . 3 . 4 . 5 . 6 . 7 . 8 . 
e|---------------------------------|---------------------------------| 
B|---------------------------------|---------------------------------| 
G|-2-----2-----2-4b5r4p2---2---x-x-|-2-----2-----2-4-4b5-4---2-------| 
D|-----4-----4-----------4-----x-x-|-----4-----4---------------------| 
A|---------------------------------|---------------------------------| 
E|---------------------------------|---------------------------------| 

   1  .  2  .  3  .  4  .  5  .  6  .  7  .  8  .    1  .  2  .  3  .  4  .  5  .  6  .  7  .  8  . 
e|-------------------------------------------------|-------------------------------------------------| 
B|-------17-------17-------17----------------------|-------20-------20-------20-------20-------------| 
G|-19b21----19b21----19b21----19-17----17~---17-17-|-19b21----19b21----19b21~---19b21~---19b21~------| 
D|----------------------------------19-------------|-------------------------------------------------| 
A|-------------------------------------------------|-------------------------------------------------| 
E|-------------------------------------------------|-------------------------------------------------| 

   1  .  2  .  3  .  4  .  5  .  6  .  7   .   8   .     1  .  2  .  3  .  4  .  5  .  6  .  7   .   8   .  
e|-------17-------17-------17-17-----------------------|-------17-------17-------17-17-----------------------| 
B|-20b22----20b22----20b22----------17-20-17---17------|-20b22----20b22----20b22----------17-20-17---17------| 
G|------------------------------------------19---19-17-|------------------------------------------19---19-17-| 
D|-----------------------------------------------------|-----------------------------------------------------| 
A|-----------------------------------------------------|-----------------------------------------------------| 
E|-----------------------------------------------------|-----------------------------------------------------| 

   1  .  2  .  3  .  4  .  5  .  6  .  7   .   8   .     1  .  2  .  3  .  4  .  5  .  6  .  7   .   8   .  
e|-------17-------17-------17-17-----------------------|-------17-------17-------17-------17-17--------------| 
B|-20b22----20b22----20b22----------17-20-17---17------|-20b22----20b22----20b22----20b22----20b22~----------| 
G|------------------------------------------19---19-17-|-----------------------------------------------------| 
D|-----------------------------------------------------|-----------------------------------------------------| 
A|-----------------------------------------------------|-----------------------------------------------------| 
E|-----------------------------------------------------|-----------------------------------------------------| 

   1  .  2  .  3  .  4  .  5  .  6  .  7  .  8  .    1  .  2  .  3  .  4  .  5  .  6  .  7  .  8  .  
e|-------------------------------------------------|--------------------------------------------------| 
B|-8-----8--8~-------------------------------7-----|-8-----8--8~-------------------------------7------| 
G|-9-----9--9~-------------------------------7-----|-9-----9--9~-------------------------------7------| 
D|-------------------------------------------------|--------------------------------------------------| 
A|-------------------------------------------------|--------------------------------------------------| 
E|-------------------------------------------------|--------------------------------------------------| 

   1  .  2  .  3  .  4  .  5  .  6  .  7  .  8  .    1  .  2  .  3  .  4  .  5  .  6  .  7  .  8  .  
e|-------------------------------------------------|--------------------------------------------------| 
B|-8-----8--8-----8--8~----------8-----8-----7-----|-8-----8--8~----8--8--------8--------8------------| 
G|-9-----9--9-----9--9~----------9-----9-----7-----|-9-----9--9~----9--9--------9--------9------------| 
D|-------------------------------------------------|--------------------------------------------------| 
A|-------------------------------------------------|--------------------------------------------------| 
E|-------------------------------------------------|--------------------------------------------------| 

   1  .  2  .  3  .  4  .  5  .  6  .  7  .  8  .    1  .  2  .  3  .  4  .  5  .  6  .  7  .  8  . 
e|-------17-------17-------17-------17-20p17----17-|-------17-------17-------17-------17-20p17----17--| 
B|-20b22----20b22----20b22----20b22----------20----|-20b22----20b22----20b22----20b22----------20-----| 
G|-------------------------------------------------|--------------------------------------------------| 
D|-------------------------------------------------|--------------------------------------------------| 
A|-------------------------------------------------|--------------------------------------------------| 
E|-------------------------------------------------|--------------------------------------------------| 

   1  .  2  .  3  .  4  .  5  .  6  .  7  .  8  .    1  .  2  .  3  .  4  .  5  .  6  .  7  .  8  . 
e|-------17-------17-------17-------17-20p17----17-|-------17-------17-------17-------17-17-----------| 
B|-20b22----20b22----20b22----20b22----------20----|-20b22----20b22----20b22----20b22----20b22--------| 
G|-------------------------------------------------|--------------------------------------------------| 
D|-------------------------------------------------|--------------------------------------------------| 
A|-------------------------------------------------|--------------------------------------------------| 
E|-------------------------------------------------|--------------------------------------------------| 

Outro 
e|---------------------------------|---------------------------------| 
B|---------------------------------|---------------------------------| 
G|-----2-2---2-----2-2-------------|-----2-2---2-----2-2-------------| 
D|-----2-2---2-----2-2---0-1p0-----|-----2-2---2-----2-2---0-1p0-----| 
A|-3p0-0-0---0-3p0-0-0---------3p0-|-3p0-0-0---0-3p0-0-0---------3p0-| 
E|---------------------------------|---------------------------------| 

e|---------------------------------|---------------------------------| 
B|---------------------------------|---------------------------------| 
G|-----2-2---2-----2-2-------------|---------------------------------| 
D|-----2-2---2-----2-2---0-1p0-----|-1p0-----1p0-----1p0-----1p0-----| 
A|-3p0-0-0---0-3p0-0-0---------3p0-|-----3p0-----3p0-----3p0-----3p0-| 
E|---------------------------------|---------------------------------| 

e|-----------------------------------------------------------------| 
B|-3-----------------------------------3-----------3--------3------| 
G|-2-----------------------------2-----2-----2-----2-----2--2--2---| 
D|-0-----------------------------2-----0-----2-----0-----2--0--2---| 
A|-0-----------------------------0-----------0-----------0-----0---| 
E|-----------------------------------------------------------------| 
  

top 5 | airbourne
top rock'n roll
Outras músicas do artista letras do(a) Airbourne
Top cifras »Top artistas »
Petaxxon Comunicação Online
Cifras.com.br - Melhor e mais completo site de cifras e tablaturas do Brasil
Mais de 1 milhão de acordes de músicas cadastradas desde 2003
As informações contidas no nosso site são colaborações de seus usuários e podem conter erros, sendo assim, não nos responsabilizamos sobre nenhuma destas.
close
menos
mais
close
Cor dos acordes:

Cor da letra:

 

save
close
close
 
redimensionar