Cifras e Tablaturas
Alan Jackson

Alan Jackson

Its Five O'Clock Somewhere

Cifras Cancelar Versão de Impressão

Alan Jackson - Its Five O'Clock Somewhere

Tom: D

  			 
Key: D		Drop-D tuning 
 
O.K. folks.  I was surprised to find no full tab of the lead to this beauty on 
this site, so I gave it a go.  Feel free to offer corrections.  If I find some  
time, I'll try to post the rest of the guitar parts for the talking part at the  
end of the song. 
 
 
 
Intro (also played from *** between 1st Chorus and 2nd verse, and after last Chorus) 
E--------------|-***-------------------|--------------------|----------------------| 
B--------------|-(D)--------------(G)--|-(A7)-----------(D)-|----------------------| 
G--------------|-------------------bh--|-6-6-6\4-4-4-4\2----|----------------------| 
D--0-----------|-/4-4-4-2p0-----0-4(5)-|-7-7-7\5-5-5-5\4-4--|-0---0----------------| 
A----2--b-r----|------------0h2--------|-----------------5--|---2---2p0--b-r-------| 
E------2(3)2-0-|-----------------------|--------------------|-----------2(3)2-0----| 
 
 
Verse 1 Riffs 
  (0:17)	   (0:29)	(0:32) 
E----------------|-----------|------------------| 
B----------------|-----------|------------------| 
G----------------|-----------|---------------0--| 
D-----2----------|--b-r------|-------0-----0----| 
A-0h2----b-r-----|-2(3)2-0---|-0h2h3---2p0------| 
E-------2(3)2-0--|-----------|------------------| 
 
Chorus Riff: (or a slight 		 			Last Chorus riff: played after 
variation on it) played in same 				1st "I don't care" in	 
spot of every Chorus (after		 Bridge Riff: Played	last Chorus 
"before I go insane").			 twice in bridge 
 
  (0:45, 1:39, 2:28 & 2:41)		(2:02 & 2:10)		 (2:46) 
E-------------|				E-------------|		E------------------------| 
B-------------|				B-------------|		B------------------------| 
G-------------|				G-2-4-2-------|		G------------------------| 
D-0---0-------|				D-------5p4-2-|		D------------------------| 
A---2---------|				A-------------|		A------------------------| 
E-------3-2-0-|				E-------------|		E-6h7-77-6h7-77-6h7-7----| 
 
Solo: 
(1:47) 
E--------------------------------------------------------bh--5---r-------------------| 
B-----------------------------------------10--8--7--5---5(7)---(7)5-5-3--------------| 
G-------------------------------b-r-------------------------------------4-2----------| 
D--------bh--00--bh--0-----0-2-4(5)4-5-/11---9--7--5--5---------------------4-0------| 
A-0-2-0-4(5)----4(5)---0h2-----------------------------------------------------------| 
E------------------------------------------------------------------------------------| 
Lead during talking part 
 (3:09)				 (3:13) 
E-----------------------------|----------------------------------------------------| 
B-----------------------------|----------------------------------------------------| 
G--------------------0--bh--0-|--6--4--2--0----------------------------------------| 
D-0--bh--0-------0-4---4(5)---|-7--5--4--2-2(4)2-0-----0---------------------------| 
A---4(5)---2p0-2--------------|--------------------0h2---2p0-----------------------| 
E-----------------------------|----------------------------------------------------| 
 
 
 

    	
fixar
fixar inscrever-se

enviado porenviado por: Andy
cifra enviadaCorrigida por: sem correções
logo top cifrasComente
ico música do artistaMúsicas deste artista
ico curtiuCurtiu?
ico destaqueDestaque
Petaxxon Comunicação Online

Cifras.com.br - Melhor e mais completo site de cifras e tablaturas do Brasil Mais de 1 milhão de acordes de músicas cadastradas desde 2003
As informações contidas no nosso site são colaborações de seus usuários e podem conter erros, sendo assim, não nos responsabilizamos sobre nenhuma destas.

close
menos
mais
close
Cor dos acordes:

Cor da letra:

close
Alinhar acordes a direita Alinhar acordes a esquerda Alinhar acordes em baixo Alinhar acordes no topo
close
  Mostrar todos os acordes Esconder acordes muito fáceis Esconder acordes fáceis Esconder acordes intermediários
redimensionar
glossário