Cifras e Tablaturas
Alcoa

Alcoa

It Wont Get Better

Cifras Cancelar Versão de Impressão
cifras

Alcoa - It Wont Get Better

fixar na tela  
Exibindo: vídeo-aula ver clipes redimensionar

Tom:

  
Intro 

Electric 
d|----------------------------------------------------------------------0----------------------0----| 
A|-----------------------------------------------------------------0h2----2---------------0h2----2--| 
F|--------------------------------------------------------------------------------------------------| 
C|--------------------------------------------------------------------------------------------------| 
G|--------------------------------------------------------------------------------------------------| 
D|--------------------------------------------------------------------------------------------------| 

Acoustic 
d|----0---0-0-0----0---0-0-0----0---0-0-0----0---0-0-0----0---0-0--0-------------0---0-0--0---------| 
A|----0---0-0-0----0---0-0-0----0---0-0-0----0---0-0-0----0---0-0--0-------------0---0-0--0---------| 
F|-6--6---6-6-6-4--4---4-4-4-2--2---2-2-2--------------2--2---2-2--2-------2--2--2---2-2--2-------2-| 
C|-7--7---7-7-7-6--6---6-6-6-4--4---4-4-4-2--2---2-2-2-0--0---0-0--0-------0--0--0---0-0--0-------0-| 
G|-0--0---0-0-0-0--0---0-0-0-0--0---0-0-0-0--0---0-0-0----------------------------------------------| 
D|--------------------------------------------------------------------------------------------------| 


Electric 
d|----------------------------------------------------------------------0----------------------0----| 
A|-0---------------------------------------------------------------0h2----2---------------0h2----2--| 
F|--------------------------------------------------------------------------------------------------| 
C|--------------------------------------------------------------------------------------------------| 
G|--------------------------------------------------------------------------------------------------| 
D|--------------------------------------------------------------------------------------------------| 

Acoustic 
d|----0---0-0-0----0---0-0-0----0---0-0-0----0---0-0-0----0---0-0--0-------------0---0-0--0---------| 
A|----0---0-0-0----0---0-0-0----0---0-0-0----0---0-0-0----0---0-0--0-------------0---0-0--0---------| 
F|-6--6---6-6-6-4--4---4-4-4-2--2---2-2-2--------------2--2---2-2--2-------2--2--2---2-2--2-------2-| 
C|-7--7---7-7-7-6--6---6-6-6-4--4---4-4-4-2--2---2-2-2-0--0---0-0--0-------0--0--0---0-0--0-------0-| 
G|-0--0---0-0-0-0--0---0-0-0-0--0---0-0-0-0--0---0-0-0----------------------------------------------| 
D|--------------------------------------------------------------------------------------------------| 


Verse 

Electric 
d|---------------------------------------------------------------------------------------------------------| 
A|-0-------------------------------------------------------------------------------------------------------| 
F|---------------------------------------------------------------------------------------------------------| 
C|---------------------------------------------------------------------------------------------------------| 
G|---------------------------------------------------------------------------------------------------------| 
D|---------------------------------------------------------------------------------------------------------| 

Acoustic 
d|----0---0-0-0----0---0-0-0----0---0-0-0----0---0-0-0----0---0-0-0----0---0-0-0----0---0-0-0----0---0-0-0-| 
A|----0---0-0-0----0---0-0-0----0---0-0-0----0---0-0-0----0---0-0-0----2---2-2-2----0---0-0-0----2---2-2-2-| 
F|-6--6---6-6-6-4--4---4-4-4-2--2---2-2-2--------------2--2---2-2-2-2--2---2-2-2-2--2---2-2-2-2--2---2-2-2-| 
C|-7--7---7-7-7-6--6---6-6-6-4--4---4-4-4-2--2---2-2-2-0--0---0-0-0-0--0---0-0-0-0--0---0-0-0-0--0---0-0-0-| 
G|-0--0---0-0-0-0--0---0-0-0-0--0---0-0-0-0--0---0-0-0-----------------------------------------------------| 
D|---------------------------------------------------------------------------------------------------------| 
Look at the way she dances. How her eyes bend the light. 


Electric 
d|---------------------------------------------------------------------------------------------------------| 
A|---------------------------------------------------------------------------------------------------------| 
F|---------------------------------------------------------------------------------------------------------| 
C|---------------------------------------------------------------------------------------------------------| 
G|---------------------------------------------------------------------------------------------------------| 
D|---------------------------------------------------------------------------------------------------------| 

Acoustic 
d|----0---0-0-0----0---0-0-0----0---0-0-0----0---0-0-0----0---0-0-0----0---0-0-0----0---0-0-0----0---0-0-0-| 
A|----0---0-0-0----0---0-0-0----0---0-0-0----0---0-0-0----0---0-0-0----2---2-2-2----0---0-0-0----2---2-2-2-| 
F|-6--6---6-6-6-4--4---4-4-4-2--2---2-2-2--------------2--2---2-2-2-2--2---2-2-2-2--2---2-2-2-2--2---2-2-2-| 
C|-7--7---7-7-7-6--6---6-6-6-4--4---4-4-4-2--2---2-2-2-0--0---0-0-0-0--0---0-0-0-0--0---0-0-0-0--0---0-0-0-| 
G|-0--0---0-0-0-0--0---0-0-0-0--0---0-0-0-0--0---0-0-0-----------------------------------------------------| 
D|---------------------------------------------------------------------------------------------------------| 
Look how she's got it all figured out. But I'll pay no mind. 


Electric 
d|---------------------------------------------------------------------------------------------------------| 
A|---------------------------------------------------------------------------------------------------------| 
F|---------------------------------------------------------------------------------------------------------| 
C|---------------------------------------------------------------------------------------------------------| 
G|---------------------------------------------------------------------------------------------------------| 
D|---------------------------------------------------------------------------------------------------------| 

Acoustic 
d|----0---0-0-0----0---0-0-0----2---2-2-2----2---2-2-2----0---0-0-0----0---0-0-0----0---0-0-0----0---0-0-0-| 
A|----0---0-0-0----0---0-0-0----2---2-2-2----2---2-2-2----2---2-2-2----0---0-0-0----2---2-2-2----0---0-0-0-| 
F|----1---1-1-1----1---1-1-1----2---2-2-2----2---2-2-2-2--2---2-2-2-2--2---2-2-2-2--2---2-2-2-2--2---2-2-2-| 
C|----2---2-2-2----2---2-2-2----4---4-4-4----4---4-4-4-0--0---0-0-0-0--0---0-0-0-0--0---0-0-0-0--0---0-0-0-| 
G|-2--2---2-2-2-2--2---2-2-2-4--4---4-4-4-4--4---4-4-4-----------------------------------------------------| 
D|-0--0---0-0-0-0--0---0-0-0-2--2---2-2-2-2--2---2-2-2-----------------------------------------------------| 
Cause I know it won't get better in time. 


Electric 
d|-0-------------------------2-------------------------0---------------------------| 
A|-0-------------------------2-------------------------2------------0------------2-| 
F|-1-------------------------2-------------------------2---------------------------| 
C|-2-------------------------4-------------------------0---------------------------| 
G|-2-------------------------4-----------------------------------------------------| 
D|-0-------------------------2-----------------------------------------------------| 

Acoustic 
d|----0---0-0-0----0---0-0-0----2---2-2-2----2---2-2-2----0---0-0-0----0---0-0-0-0-| 
A|----0---0-0-0----0---0-0-0----2---2-2-2----2---2-2-2----2---2-2-2----0---0-0-0-2-| 
F|----1---1-1-1----1---1-1-1----2---2-2-2----2---2-2-2-2--2---2-2-2-2--2---2-2-2-2-| 
C|----2---2-2-2----2---2-2-2----4---4-4-4----4---4-4-4-0--0---0-0-0-0--0---0-0-0-0-| 
G|-2--2---2-2-2-2--2---2-2-2-4--4---4-4-4-4--4---4-4-4-----------------------------| 
D|-0--0---0-0-0-0--0---0-0-0-2--2---2-2-2-2--2---2-2-2-----------------------------| 
So just take me back to your place tonight and I'll leave at sunrise. 


Instrumental 

Electric 
d|---------------------------------------------------------------------0----------------------0-----| 
A|----------------------------------------------------------------0h2----2---------------0h2----2---| 
F|--------------------------------------------------------------------------------------------------| 
C|--------------------------------------------------------------------------------------------------| 
G|--------------------------------------------------------------------------------------------------| 
D|--------------------------------------------------------------------------------------------------| 

Acoustic 
d|----0---0-0-0----0---0-0-0----0---0-0-0----0---0-0-0----0---0-0--0-------------0---0-0--0---------| 
A|----0---0-0-0----0---0-0-0----0---0-0-0----0---0-0-0----0---0-0--0-------------0---0-0--0---------| 
F|-6--6---6-6-6-4--4---4-4-4-2--2---2-2-2--------------2--2---2-2--2-------2--2--2---2-2--2-------2-| 
C|-7--7---7-7-7-6--6---6-6-6-4--4---4-4-4-2--2---2-2-2-0--0---0-0--0-------0--0--0---0-0--0-------0-| 
G|-0--0---0-0-0-0--0---0-0-0-0--0---0-0-0-0--0---0-0-0----------------------------------------------| 
D|--------------------------------------------------------------------------------------------------| 


Electric 
d|----------------------------------------------------------------------0----------------------0----| 
A|-0---------------------------------------------------------------0h2----2---------------0h2----2--| 
F|--------------------------------------------------------------------------------------------------| 
C|--------------------------------------------------------------------------------------------------| 
G|--------------------------------------------------------------------------------------------------| 
D|--------------------------------------------------------------------------------------------------| 

Acoustic 
d|----0---0-0-0----0---0-0-0----0---0-0-0----0---0-0-0----0---0-0--0-------------0---0-0--0---------| 
A|----0---0-0-0----0---0-0-0----0---0-0-0----0---0-0-0----0---0-0--0-------------0---0-0--0---------| 
F|-6--6---6-6-6-4--4---4-4-4-2--2---2-2-2--------------2--2---2-2--2-------2--2--2---2-2--2-------2-| 
C|-7--7---7-7-7-6--6---6-6-6-4--4---4-4-4-2--2---2-2-2-0--0---0-0--0-------0--0--0---0-0--0-------0-| 
G|-0--0---0-0-0-0--0---0-0-0-0--0---0-0-0-0--0---0-0-0----------------------------------------------| 
D|--------------------------------------------------------------------------------------------------| 


Verse 

Electric 
d|---------------------------------------------------------------------------------------------------------| 
A|-0-------------------------------------------------------------------------------------------------------| 
F|---------------------------------------------------------------------------------------------------------| 
C|---------------------------------------------------------------------------------------------------------| 
G|---------------------------------------------------------------------------------------------------------| 
D|---------------------------------------------------------------------------------------------------------| 

Acoustic 
d|----0---0-0-0----0---0-0-0----0---0-0-0----0---0-0-0----0---0-0-0----0---0-0-0----0---0-0-0----0---0-0-0-| 
A|----0---0-0-0----0---0-0-0----0---0-0-0----0---0-0-0----0---0-0-0----2---2-2-2----0---0-0-0----2---2-2-2-| 
F|-6--6---6-6-6-4--4---4-4-4-2--2---2-2-2--------------2--2---2-2-2-2--2---2-2-2-2--2---2-2-2-2--2---2-2-2-| 
C|-7--7---7-7-7-6--6---6-6-6-4--4---4-4-4-2--2---2-2-2-0--0---0-0-0-0--0---0-0-0-0--0---0-0-0-0--0---0-0-0-| 
G|-0--0---0-0-0-0--0---0-0-0-0--0---0-0-0-0--0---0-0-0-----------------------------------------------------| 
D|---------------------------------------------------------------------------------------------------------| 
Morning coffee cigarette blues. 


Electric 
d|---------------------------------------------------------------------------------------------------------| 
A|---------------------------------------------------------------------------------------------------------| 
F|---------------------------------------------------------------------------------------------------------| 
C|---------------------------------------------------------------------------------------------------------| 
G|---------------------------------------------------------------------------------------------------------| 
D|---------------------------------------------------------------------------------------------------------| 

Acoustic 
d|----0---0-0-0----0---0-0-0----0---0-0-0----0---0-0-0----0---0-0-0----0---0-0-0----0---0-0-0----0---0-0-0-| 
A|----0---0-0-0----0---0-0-0----0---0-0-0----0---0-0-0----0---0-0-0----2---2-2-2----0---0-0-0----2---2-2-2-| 
F|-6--6---6-6-6-4--4---4-4-4-2--2---2-2-2--------------2--2---2-2-2-2--2---2-2-2-2--2---2-2-2-2--2---2-2-2-| 
C|-7--7---7-7-7-6--6---6-6-6-4--4---4-4-4-2--2---2-2-2-0--0---0-0-0-0--0---0-0-0-0--0---0-0-0-0--0---0-0-0-| 
G|-0--0---0-0-0-0--0---0-0-0-0--0---0-0-0-0--0---0-0-0-----------------------------------------------------| 
D|---------------------------------------------------------------------------------------------------------| 
My half a pack black lungs ain't got you. 


Electric 
d|-0-------------------------2-------------------------0------------0------------0---------------0---------| 
A|-0-------------------------2-------------------------2------------0------------2---------------0---------| 
F|-1-------------------------2-------------------------2------------2------------2---------------2---------| 
C|-2-------------------------4-------------------------0------------0------------0---------------0---------| 
G|-2-------------------------4-----------------------------------------------------------------------------| 
D|-0-------------------------2-----------------------------------------------------------------------------| 

Acoustic 
d|----0---0-0-0----0---0-0-0----2---2-2-2----2---2-2-2----0---0-0-0----0---0-0-0----0---0-0-0----0---0-0-0-| 
A|----0---0-0-0----0---0-0-0----2---2-2-2----2---2-2-2----2---2-2-2----0---0-0-0----2---2-2-2----0---0-0-0-| 
F|----1---1-1-1----1---1-1-1----2---2-2-2----2---2-2-2-2--2---2-2-2-2--2---2-2-2-2--2---2-2-2-2--2---2-2-2-| 
C|----2---2-2-2----2---2-2-2----4---4-4-4----4---4-4-4-0--0---0-0-0-0--0---0-0-0-0--0---0-0-0-0--0---0-0-0-| 
G|-2--2---2-2-2-2--2---2-2-2-4--4---4-4-4-4--4---4-4-4-----------------------------------------------------| 
D|-0--0---0-0-0-0--0---0-0-0-2--2---2-2-2-2--2---2-2-2-----------------------------------------------------| 
And I know it won't get better in time. 


Electric 
d|-0-------------------------5-------------------------0------------0------------------------------| 
A|-0-------------------------2-------------------------2------------0------------------------------| 
F|-1-------------------------2-------------------------2------------2------------------------------| 
C|-2-------------------------4-------------------------0------------0------------------------------| 
G|-2-------------------------4---------------------------------------------------------------------| 
D|-0-------------------------2---------------------------------------------------------------------| 

Acoustic 
d|----0---0-0-0----0---0-0-0----2---2-2-2----2---2-2-2----0---0-0-0----0---0-0-0----0---0-0-0----0-| 
A|----0---0-0-0----0---0-0-0----2---2-2-2----2---2-2-2----2---2-2-2----0---0-0-0----2---2-2-2----0-| 
F|----1---1-1-1----1---1-1-1----2---2-2-2----2---2-2-2-2--2---2-2-2-2--2---2-2-2-2--2---2-2-2-2--2-| 
C|----2---2-2-2----2---2-2-2----4---4-4-4----4---4-4-4-0--0---0-0-0-0--0---0-0-0-0--0---0-0-0-0--0-| 
G|-2--2---2-2-2-2--2---2-2-2-4--4---4-4-4-4--4---4-4-4---------------------------------------------| 
D|-0--0---0-0-0-0--0---0-0-0-2--2---2-2-2-2--2---2-2-2---------------------------------------------| 
So just take me back to your place tonight. 


Break 

Electric 
d|------0-------------------------0-------------------------0--------------------2---------------0---------| 
A|----3--------------------------------------------------3-----------------------2---------------0---------| 
F|------------------------------6------------------------------------------------2---------------1---------| 
C|-----------------------------------------------------0-------------------------4---------------2---------| 
G|-2-------------------------4---------------------------------------------------4---------------2---------| 
D|-------------------------------------------------------------------------------2---------------0---------| 

Acoustic 
d|----0---0-0-0----0---0-0-0----0---0-0-0----0---0-0-0----0---0-0-0----0---0-0-0----2---2-2-2----0---0-0-0-| 
A|----3---3-3-3----3---3-3-3----5---5-5-5----5---5-5-5----3---3-3-3----3---3-3-3----2---2-2-2----0---0-0-0-| 
F|----4---4-4-4----4---4-4-4----6---6-6-6----6---6-6-6-2--2---2-2-2-2--2---2-2-2----2---2-2-2----1---1-1-1-| 
C|-4--4---4-4-4-4--4---4-4-4-6--6---6-6-6-6--6---6-6-6-0--0---0-0-0-0--0---0-0-0----4---4-4-4----2---2-2-2-| 
G|-2--2---2-2-2-2--2---2-2-2-4--4---4-4-4-4--4---4-4-4---------------------------4--4---4-4-4-2--2---2-2-2-| 
D|-------------------------------------------------------------------------------2--2---2-2-2-0--0---0-0-0-| 
Don't tell me you love me. Just say you'll spend the night. 


Electric 
d|---------------------------------------------------------------------------------| 
A|------3-------------------------5------------------------------------------------| 
F|----4-------------------------6--------------------------------------------------| 
C|---------------------------------------------------------------------------------| 
G|-2-------------------------4-----------------------------------------------------| 
D|---------------------------------------------------------------------------------| 

Acoustic 
d|----0---0-0-0----0---0-0-0----0---0-0-0----0---0-0-0----0---0-0-0----0---0-0-0-0-| 
A|----3---3-3-3----3---3-3-3----5---5-5-5----5---5-5-5----3---3-3-3----3---3-3-3-0-| 
F|----4---4-4-4----4---4-4-4----6---6-6-6----6---6-6-6-2--2---2-2-2-2--2---2-2-2-1-| 
C|-4--4---4-4-4-4--4---4-4-4-6--6---6-6-6-6--6---6-6-6-0--0---0-0-0-0--0---0-0-0-2-| 
G|-2--2---2-2-2-2--2---2-2-2-4--4---4-4-4-4--4---4-4-4---------------------------2-| 
D|-------------------------------------------------------------------------------0-| 
Don't tell me you love me. Just turn out the lights when you leave and I'll be alright. 


Outro 

Electric 
d|----------------------------------------------------------------------0----------------------0----| 
A|-----------------------------------------------------------------0h2----2---------------0h2----2--| 
F|-6------------4------------2------------4------------2--------------------------------------------| 
C|-7------------6------------4------------2------------0--------------------------------------------| 
G|--------------------------------------------------------------------------------------------------| 
D|--------------------------------------------------------------------------------------------------| 

Acoustic 
d|----0---0-0-0----0---0-0-0----0---0-0-0----0---0-0-0----0---0-0--0-------------0---0-0--0---------| 
A|----0---0-0-0----0---0-0-0----0---0-0-0----0---0-0-0----0---0-0--0-------------0---0-0--0---------| 
F|-6--6---6-6-6-4--4---4-4-4-2--2---2-2-2--------------2--2---2-2--2-------2--2--2---2-2--2-------2-| 
C|-7--7---7-7-7-6--6---6-6-6-4--4---4-4-4-2--2---2-2-2-0--0---0-0--0-------0--0--0---0-0--0-------0-| 
G|-0--0---0-0-0-0--0---0-0-0-0--0---0-0-0-0--0---0-0-0----------------------------------------------| 
D|--------------------------------------------------------------------------------------------------| 
And I'll be alright. And I'll be alright. 


Electric 
d|----------------------------------------------------------------------0----------------------0----| 
A|-0---------------------------------------------------------------0h2----2---------------0h2----2--| 
F|--------------------------------------------------------------------------------------------------| 
C|--------------------------------------------------------------------------------------------------| 
G|--------------------------------------------------------------------------------------------------| 
D|--------------------------------------------------------------------------------------------------| 

Acoustic 
d|----0---0-0-0----0---0-0-0----0---0-0-0----0---0-0-0----0---0-0--0-------------0---0-0--0---------| 
A|----0---0-0-0----0---0-0-0----0---0-0-0----0---0-0-0----0---0-0--0-------------0---0-0--0---------| 
F|-6--6---6-6-6-4--4---4-4-4-2--2---2-2-2--------------2--2---2-2--2-------2--2--2---2-2--2-------2-| 
C|-7--7---7-7-7-6--6---6-6-6-4--4---4-4-4-2--2---2-2-2-0--0---0-0--0-------0--0--0---0-0--0-------0-| 
G|-0--0---0-0-0-0--0---0-0-0-0--0---0-0-0-0--0---0-0-0----------------------------------------------| 
D|--------------------------------------------------------------------------------------------------| 


Electric 
d|----------------------------------------------------------| 
A|-0--------------------------------------------------------| 
F|----------------------------------------------------------| 
C|----------------------------------------------------------| 
G|----------------------------------------------------------| 
D|----------------------------------------------------------| 

Acoustic 
d|----0---0-0-0----0---0-0-0----0---0-0-0----0---0-0-0----0-| 
A|----0---0-0-0----0---0-0-0----0---0-0-0----0---0-0-0----0-| 
F|-6--6---6-6-6-4--4---4-4-4-2--2---2-2-2--------------2--2-| 
C|-7--7---7-7-7-6--6---6-6-6-4--4---4-4-4-2--2---2-2-2-0--0-| 
G|-0--0---0-0-0-0--0---0-0-0-0--0---0-0-0-0--0---0-0-0------| 
D|----------------------------------------------------------| 
Morning coffee cigarette blues. 



************************************ 

| h   Hammer-on 

************************************ 



Questions? 
Email at cory.roesch@yahoo.com 
  

top 5 | alcoa
top rock'n roll
Outras músicas do artista letras do(a) Alcoa
Top cifras »Top artistas »
Petaxxon Comunicação Online
Cifras.com.br - Melhor e mais completo site de cifras e tablaturas do Brasil
Mais de 1 milhão de acordes de músicas cadastradas desde 2003
As informações contidas no nosso site são colaborações de seus usuários e podem conter erros, sendo assim, não nos responsabilizamos sobre nenhuma destas.
close
menos
mais
close
Cor dos acordes:

Cor da letra:

 

save
close
close
 
redimensionar