Cifras e Tablaturas
Alex G

Alex G

Judge

Cifras Cancelar Versão de Impressão
cifras

Alex G - Judge

fixar na tela  
Exibindo: vídeo-aula ver clipes redimensionar

Tom:

  Intro 
e|---------------------------------------------------------------------------| 
B|---------------------------------------------------------------------------| 
G|------0--------------------------------------------------------------------| 
D|-------------------4------------2------------2--------------2----------2---| 
A|----0---0--------0---0--------0---0--------0---0----------0----------0---0-| 
E|--7------------5------------3------------0------------0-3----------0-------|   

e|---------------------------------------------------------------------------| 
B|---------------------------------------------------------------------------| 
G|------------------------------------0-----0--------------------------------| 
D|--------2----------2------------2-----2------------------------------------| 
A|------0----------0---0--------0---3-----3----------------------------------| 
E|--0-3----------2------------1----------------------------------------------|    (x2) 

Verse 
e|---------------------------------------------------------------------------| 
B|---------------------------------------------------------------------------| 
G|------0------------0------------0------------------------------------------| 
D|----2---2--------2---2--------0---0----------0-----------------------------| 
A|--0------------3---------------------------3---3---------------------------|     
E|----------------------------3------------1---------------------------------| 

e|---------------------------------------------------------------------------| 
B|---------------------------------------------------------------------------| 
G|------2------------2-------------------------------------------------------| 
D|----0---0--------2---2----------0------------2------------0----------------| 
A|--2------------0--------------0---0--------2---2--------0---0--------------|    
E|----------------------------2------------0------------2--------------------| 

e|---------------------------------------------------------------------------| 
B|---------------------------------------------------------------------------| 
G|---------------------------------------------------------------------------| 
D|------2------------0------------2------------0-----------------------------| 
A|----2---2--------0---0--------2---0--------0---0---------------------------| 
E|--0------------2------------0------------2---------------------------------|    

Chorus 
e|---------------------------------------------------------------------------| 
B|---------------------------------------------------------------------------| 
G|------0--------------------------------------------------------------------| 
D|-------------------4------------2------------2--------------2----------2---| 
A|----0---0--------0---0--------0---0--------0---0----------0----------0---0-| 
E|--7------------5------------3------------0------------0-3----------0-------|   

e|---------------------------------------------------------------------------| 
B|---------------------------------------------------------------------------| 
G|------------------------------------0-----0--------------------------------| 
D|--------2----------2------------2-----2------------------------------------| 
A|------0----------0---0--------0---3-----3----------------------------------| 
E|--0-3----------2------------1----------------------------------------------|    (x2) 

Verse 
e|---------------------------------------------------------------------------| 
B|---------------------------------------------------------------------------| 
G|------0------------0------------0------------------------------------------| 
D|----2---2--------2---2--------0---0----------0-----------------------------| 
A|--0------------3---------------------------3---3---------------------------|    (x4) 
E|----------------------------3------------1---------------------------------| 

Bridge 
e|---------------------------------------------------------------------------| 
B|---------------------------------------------------------------------------| 
G|------2------------2-------------------------------------------------------| 
D|----0---0--------0---0----------2------------0------------2------------0---| 
A|--2------------2--------------2---2--------0---0--------2---2--------0---0-|    
E|----------------------------0------------2------------0------------2-------| 

e|---------------------------------------------------------------------------| 
B|---------------------------------------------------------------------------| 
G|---------------------------------------------------------------------------| 
D|------2------------0------------2------------0-----------------------------| 
A|----2---2--------0---0--------2---0--------0---0---------------------------| 
E|--0------------2------------0------------2---------------------------------| 

Outro 
e|---------------------------------------------------------------------------| 
B|---------------------------------------------------------------------------| 
G|------0--------------------------------------------------------------------| 
D|-------------------4------------2------------2--------------2----------2---| 
A|----0---0--------0---0--------0---0--------0---0----------0----------0---0-| 
E|--7------------5------------3------------0------------0-3----------0-------| 

e|---------------------------------------------------------------------------| 
B|---------------------------------------------------------------------------| 
G|---------------------------------------------------------------------------| 
D|--------2----------2--------------2----------2--------------2----------2---| 
A|------0----------0---0----------0----------0---0----------0----------0---0-| 
E|--0-3----------0------------0-3----------0------------0-3----------0-------|  

e|---------------------------------------------------------------------------| 
B|---------------------------------------------------------------------------| 
G|---------------------------------------------------------------------------| 
D|--------2----------2-------------------------------------------------------| 
A|------0----------0---0-----------------------------------------------------| 
E|--0-3----------0-----------------------------------------------------------|  

e|---------------------------------------------------------------------------| 
B|---------------------------------------------------------------------------| 
G|------0--------------------------------------------------------------------| 
D|-------------------4------------2------------2--------------2----------2---| 
A|----0---0--------0---0--------0---0--------0---0----------0----------0---0-| 
E|--7------------5------------3------------0------------0-3----------0-------|   

e|---------------------------------------------------------------------------| 
B|---------------------------------------------------------------------------| 
G|------------------------------------0-----0--------------------------------| 
D|--------2----------2------------2-----2------------------------------------| 
A|------0----------0---0--------0---3-----3----------------------------------| 
E|--0-3----------2------------1----------------------------------------------| 
  

top 5 | alex g
top
Outras músicas do artista letras do(a) Alex G
Top cifras »Top artistas »
Petaxxon Comunicação Online
Cifras.com.br - Melhor e mais completo site de cifras e tablaturas do Brasil
Mais de 1 milhão de acordes de músicas cadastradas desde 2003
As informações contidas no nosso site são colaborações de seus usuários e podem conter erros, sendo assim, não nos responsabilizamos sobre nenhuma destas.
close
menos
mais
close
Cor dos acordes:

Cor da letra:

 

save
close
close
 
redimensionar