Cifras e Tablaturas
Alex G

Alex G

Mystery Machine

Cifras Cancelar Versão de Impressão
cifras

Alex G - Mystery Machine

fixar na tela  
Exibindo: vídeo-aula ver clipes redimensionar

Tom:

  
Intro: 
e|---------------------------------------------------------------------------| 
B|--3-3-5-3-0-7-7-7-7-7-7-7-7------------------------------------------------| 
G|---------------------------------------------------------------------------| 
D|--4-4-4-4-4-6-6-6-6-6-6-6-6------------------------------------------------| 
A|--5-5-5-5-5-7-7-7-7-7-7-7-7------------------------------------------------| 10x 
E|---------------------------------------------------------------------------| 

e|---------------------------------------------------------------------------| 
B|---------------------------------------------------------------------------| 
G|-------------------don't play the nine the first time----------------------| 
D|---------------------------------------------------------------------------| 
A|--(9)---5-----7---2--------------------------------------------------------| 2x 
E|---------------------------------------------------------------------------| 

Verse: 
e|---------------------------------------------------------------------------| 
B|---------------------------------------------------------------------------| 
G|---------------------------------------------------------------------------| 
D|---------------------------------------------------------------------------| 
A|----9---5-----7---2--------------------------------------------------------| 4x 
E|---------------------------------------------------------------------------| 

Chorus: 
e|---------------------------------------------------------------------------| 
B|---------------------------------------------------------------------------| 
G|--7-7-7-7-7-9-9------------------------------------------------------------| 
D|--7-7-7-7-7-9-9------------------------------------------------------------| 
A|--5-5-5-5-5-7-7------------------------------------------------------------| 4x 
E|---------------------------------------------------------------------------| 

Bridge: 
e|---------------------------------------------------------------------------| 
B|--3-3-5-3-0-7-7-7-7-7-7-7-7------------------------------------------------| 
G|---------------------------------------------------------------------------| 
D|--4-4-4-4-4-6-6-6-6-6-6-6-6------------------------------------------------| 
A|--5-5-5-5-5-7-7-7-7-7-7-7-7------------------------------------------------| 8x 
E|---------------------------------------------------------------------------| 

e|---------------------------------------------------------------------------| 
B|---------------------------------------------------------------------------| 
G|-------------------don't play the nine the first time----------------------| 
D|---------------------------------------------------------------------------| 
A|--(9)---5-----7---2--------------------------------------------------------| 2x 
E|---------------------------------------------------------------------------| 

Verse: 
e|---------------------------------------------------------------------------| 
B|---------------------------------------------------------------------------| 
G|---------------------------------------------------------------------------| 
D|---------------------------------------------------------------------------| 
A|----9---5-----7---2--------------------------------------------------------| 4x 
E|---------------------------------------------------------------------------| 

Chorus: 
e|---------------------------------------------------------------------------| 
B|---------------------------------------------------------------------------| 
G|--7-7-7-7-7-9-9------------------------------------------------------------| 
D|--7-7-7-7-7-9-9------------------------------------------------------------| 
A|--5-5-5-5-5-7-7------------------------------------------------------------| 4x 
E|---------------------------------------------------------------------------| 

Outro: 
e|---------------------------------------------------------------------------| 
B|--3-3-5-3-0-7-7-7-7-7-7-7-7------------------------------------------------| 
G|---------------------------------------------------------------------------| 
D|--4-4-4-4-4-6-6-6-6-6-6-6-6------------------------------------------------| 
A|--5-5-5-5-5-7-7-7-7-7-7-7-7------------------------------------------------| 8x 
E|---------------------------------------------------------------------------| 

e|---------------------------------------------------------------------------| 
B|---------------------------------------------------------------------------| 
G|---------------------------------------------------------------------------| 
D|---------------------------------------------------------------------------| 
A|--7---7---9---2------------------------------------------------------------| 4x 
E|---------------------------------------------------------------------------| 
  

top 5 | alex g
top
Outras músicas do artista letras do(a) Alex G
4.
Good
Top cifras »Top artistas »
Petaxxon Comunicação Online
Cifras.com.br - Melhor e mais completo site de cifras e tablaturas do Brasil
Mais de 1 milhão de acordes de músicas cadastradas desde 2003
As informações contidas no nosso site são colaborações de seus usuários e podem conter erros, sendo assim, não nos responsabilizamos sobre nenhuma destas.
close
menos
mais
close
Cor dos acordes:

Cor da letra:

 

save
close
close
 
redimensionar