Cifras e Tablaturas
Alex G

Alex G

Rules

Cifras Cancelar Versão de Impressão

Alex G - Rules

Tom: C

  			
Verse 
                    C      Am Em  G  C 
e|--------------------------------3------------------------------------------| 
B|-x--7--5--0-------1---1---1--0--0--1---------------------------------------| 
G|-x--x--x--x-------0---0---2--0--0--0---------------------------------------| x2 
D|-6--6--6--6-------2---0---2--2--0--2---------------------------------------| 
A|-7--7--7--7--5--3-3-2-2-0-0--2--2--3---------------------------------------| 
E|-------------7---------------0--3------------------------------------------| 

Chorus 
   D     D  A        G  D  C 
e|-2--3--2--0--0--------2--0-------------------------------------------------| 
B|-3--3--3--2--3--0--0--3--1-------------------------------------------------| 
G|-2--2--2--2--2--0--0--2--0-------------------------------------------------| 
D|-0--0--0--2--2--2--0--0--2-------------------------------------------------| 
A|----------0--0--3--2-----3-------------------------------------------------| 
E|-------------------3-------------------------------------------------------| 

   G  D  C 
e|----2--0-------------------------------------------------------------------| 
B|-0--3--1-------------------------------------------------------------------| 
G|-0--2--0-------------------------------------------------------------------| x4 
D|-0--0--2-------------------------------------------------------------------| 
A|-2-----3-------------------------------------------------------------------| 
E|-3-------------------------------------------------------------------------| 
  "Mama says where'd you go..." part 

Verse 
e|--------------------------------3------------------------------------------| 
B|-x--7--5--0-------1---1---1--0--0--1---------------------------------------| 
G|-x--x--x--x-------0---0---2--0--0--0---------------------------------------| x2 
D|-6--6--6--6-------2---0---2--2--0--2---------------------------------------| 
A|-7--7--7--7--5--3-3-2-2-0-0--2--2--3---------------------------------------| 
E|-------------7---------------0--3------------------------------------------| 

Chorus 
   D     D  A        G  D  C 
e|-2--3--2--0--0--------2--0-------------------------------------------------| 
B|-3--3--3--2--3--0--0--3--1-------------------------------------------------| 
G|-2--2--2--2--2--0--0--2--0-------------------------------------------------| 
D|-0--0--0--2--2--2--0--0--2-------------------------------------------------| 
A|----------0--0--3--2-----3-------------------------------------------------| 
E|-------------------3-------------------------------------------------------| 

   G  D  C 
e|----2--0-------------------------------------------------------------------| 
B|-0--3--1-------------------------------------------------------------------| 
G|-0--2--0-------------------------------------------------------------------| x4 
D|-0--0--2-------------------------------------------------------------------| 
A|-2-----3-------------------------------------------------------------------| 
E|-3-------------------------------------------------------------------------| 

Outro 
e|--------------------------------3------------------------------------------| 
B|-x--7--5--0-------1---1---1--0--0--1---------------------------------------| 
G|-x--x--x--x-------0---0---2--0--0--0---------------------------------------| 
D|-6--6--6--6-------2---0---2--2--0--2---------------------------------------| 
A|-7--7--7--7--5--3-3-2-2-0-0--2--2--3---------------------------------------| 
E|-------------7---------------0--3------------------------------------------| 

   D     D  A        G  D  C 
e|-2--3--2--0--0--------2--0-------------------------------------------------| 
B|-3--3--3--2--3--0--0--3--1-------------------------------------------------| 
G|-2--2--2--2--2--0--0--2--0-------------------------------------------------| 
D|-0--0--0--2--2--2--0--0--2-------------------------------------------------| 
A|----------0--0--3--2-----3-------------------------------------------------| 
E|-------------------3-------------------------------------------------------| 

   G  D  C 
e|----2--0-------------------------------------------------------------------| 
B|-0--3--1-------------------------------------------------------------------| 
G|-0--2--0-------------------------------------------------------------------| x8, fade 
D|-0--0--2-------------------------------------------------------------------| 
A|-2-----3-------------------------------------------------------------------| 
E|-3-------------------------------------------------------------------------| 


******************** 

| x  dead note 

******************** 
    	
fixar
fixar inscrever-se

enviado porenviado por: paulantunes
cifra enviadaCorrigida por: sem correções
logo top cifrasComente
ico música do artistaMúsicas deste artista
ico curtiuCurtiu?
ico destaqueDestaque
Petaxxon Comunicação Online

Cifras.com.br - Melhor e mais completo site de cifras e tablaturas do Brasil Mais de 1 milhão de acordes de músicas cadastradas desde 2003
As informações contidas no nosso site são colaborações de seus usuários e podem conter erros, sendo assim, não nos responsabilizamos sobre nenhuma destas.

close
menos
mais
close
Cor dos acordes:

Cor da letra:

close
Alinhar acordes a direita Alinhar acordes a esquerda Alinhar acordes em baixo Alinhar acordes no topo
close
  Mostrar todos os acordes Esconder acordes muito fáceis Esconder acordes fáceis Esconder acordes intermediários
redimensionar
glossário