Cifras e Tablaturas
Alex G

Alex G

Scared

Cifras Cancelar Versão de Impressão

Alex G - Scared

Tom:

  			


Main riff: 

e|---8--8--8--10--8--------2--2--2--3----2------| 
B|---9--9--9--10--9--------3--3--3--3----3------| 
G|---0--0--0-- 0--0--------0--0--0--0----0------| 
D|---0--0--0-- 0--0--------0--0--0--0----0------| 
A|---0--0--0-- 0--0--------0--0--0--0----0------| 
E|---9--9--9-- 9--9--------3--3--3--3----3------| 

e|----------------------------------------------| 
B|---6--3---6--6--6--3--3--3----6--6--6--3--3---| 
G|---0--0---0--0--0--0--6--5----0--0--0--0--5---| 
D|---0--0---0--0--0--0--0--0----0--0--0--0--0---| 
A|---3--3---3--3--3--2--2--0----3--3--3--2--0---| 
E|---0--0---0--0--0--0--0--3----0--0--0--0--3---| 

Verse variation: 

e|----------------------------------------------| 
B|---6--3-----------------------6--6--6--3--3---| 
G|---0--0---6--6--6--5--6--5----0--0--0--0--5---| 
D|---0--0---x--x--x--x--x--x----0--0--0--0--0---| 
A|---3--3---3--3--3--3--3--3----3--3--3--2--0---| 
E|---0--0-----------------------0--0--0--0--3---| 
    	
fixar
fixar inscrever-se

enviado porenviado por: jov-correa
cifra enviadaCorrigida por: sem correções
logo top cifrasComente
ico música do artistaMúsicas deste artista
ico curtiuCurtiu?
ico destaqueDestaque
Petaxxon Comunicação Online

Cifras.com.br - Melhor e mais completo site de cifras e tablaturas do Brasil Mais de 1 milhão de acordes de músicas cadastradas desde 2003
As informações contidas no nosso site são colaborações de seus usuários e podem conter erros, sendo assim, não nos responsabilizamos sobre nenhuma destas.

close
menos
mais
close
Cor dos acordes:

Cor da letra:

close
Alinhar acordes a direita Alinhar acordes a esquerda Alinhar acordes em baixo Alinhar acordes no topo
close
  Mostrar todos os acordes Esconder acordes muito fáceis Esconder acordes fáceis Esconder acordes intermediários
redimensionar
glossário