Cifras e Tablaturas
Alex G

Alex G

Trade

Cifras Cancelar Versão de Impressão
cifras

Alex G - Trade

fixar na tela  
Exibindo: vídeo-aula ver clipes redimensionar

Tom:

  
verse 1/2 
e|--------------------------------------------------------------------| 
B|--------------------------------------------------------------------| 
G|---------------------------------2-2-2-2----------------------------| 
D|---------------------------------2-2-2-2-2-2-2-2--------------------| 
A|-3-3-3-3-3-3-3-3-3-3-3-3-3-3-3-3---------2-2-2-2-3-3-3-3-3-3-3-3----| 
E|-3-3-3-3-2-2-2-2-1-1-1-1-1-1-1-1-----------------1-1-1-1-1-1-1-1----| 
  I'm way too old...               I'd bite my tongue... 
  I trip around...                 write another song... 

e|-------------------------------------------------------------------------------------| 
B|-------------------------------------------------------------------------------------| 
G|-------------------------------------------------------------------------------------| 
D|-2-2-2-2-----------------------------------------------------------------------------| 
A|-3-3-3-3-2-2-2-2-3-3-3-3-3-3-3-3-8-8-8-8-8-8-8-8-3-3-3-3-10-10-10-10-5-5-5-5-8-8-8-8-| 
E|-3-3-3-3-3-3-3-3-1-1-1-1-1-1-1-1-6-6-6-6-6-6-6-6-1-1-1-1--8--8--8--8-3-3-3-3-6-6-6-6-| 
...a funny joke...              ...message on the machine... 
...somebody else...             ...no-one inside of this body... 

verse 3 
e|------------------------------------------------------------------------------------| 
B|------------------------------------------------------------------------------------| 
G|-------------------------------------------------2-2-2-2----------------------------| 
D|-------------------------------------------------2-2-2-2-2-2-2-2--------------------| 
A|-3-3-3-3-3-3-3-3-3-3-3-3-3-3-3-3-3-3-3-3-3-3-3-3---------2-2-2-2-3-3-3-3-3-3-3-3----| 
E|-3-3-3-3-3-3-3-3-2-2-2-2-2-2-2-2-1-1-1-1-1-1-1-1-----------------1-1-1-1-1-1-1-1----| 
  He likes the icing...                         ...trade my fucking place... 

e|---------------------------------------------------------------------| 
B|---------------------------------------------------------------------| 
G|---------------------------------------------------------------------| 
D|-2-2-2-2-------------------------------------------------------------| 
A|-3-3-3-3-2-2-2-2-5-5-5-5-5-5-5-5-3-3-3-3-10-10-10-10-5-5-5-5-8-8-8-8-| 
E|-3-3-3-3-3-3-3-3-6-6-6-6-6-6-6-6-1-1-1-1--8--8--8--8-3-3-3-3-6-6-6-6-| 
...do me a favour...            ...get the hell out of here... 

e|---------------------------------------------------------------------------| 
B|---------------------------------------------------------------------------| 
G|---------------------------------------------------------------------------| 
D|---------------------------------------------------------------------------| 
A|-3-3-3-3-10-10-10-10-5-5-5-5-8-8-8-8-3-3-3-3-10-10-10-10-5-5-5-5-8-8-8-8-3-| 
E|-1-1-1-1--8--8--8--8-3-3-3-3-6-6-6-6-1-1-1-1--8--8--8--8-3-3-3-3-6-6-6-6-1-| 
  

top 5 | alex g
top
Outras músicas do artista letras do(a) Alex G
4.
Kute
Top cifras »Top artistas »
Petaxxon Comunicação Online
Cifras.com.br - Melhor e mais completo site de cifras e tablaturas do Brasil
Mais de 1 milhão de acordes de músicas cadastradas desde 2003
As informações contidas no nosso site são colaborações de seus usuários e podem conter erros, sendo assim, não nos responsabilizamos sobre nenhuma destas.
close
menos
mais
close
Cor dos acordes:

Cor da letra:

 

save
close
close
 
redimensionar