Cifras e Tablaturas
Alice in Chains

Alice in Chains

Man in the BoxTablatura Verificada

Ano: 1990
Album : Facelift
Compositor : (Jerry Cantrell / Layne Staley / Sean Kinney / Michael C. Starr / Cantrell / Staley)

Cifras Cancelar Versão de Impressão

Alice in Chains - Man in the Box

Tom: Em

  			


Intro and Verse: 

eb|-------------------------------------------------------------------------| 
Bb|-------------------------------------------------------------------------| 
Gb|-------------------------------------------------------------------------| 
Db|-------------------------------------------------------------------------| 
Ab|-5xx5x5xx-5xx5x5-----5-5xx5x5xx-5xx5x5-----5-----------------------------| 
Eb|-0xx0x0xx-0xx0x0-5/7---0xx0x0xx-0xx0x0-5/7-------------------------------| 



Pre-chorus: 

eb|-------------------------------------------------------------------------| 
Bb|-------------------------------------------------------------------------| 
Gb|-------------------------------------------------------------------------| 
Db|-------------------------------------------------------------------------| 
Ab|----557-5557-5557-5557-5557-5557-5557-5557-5xx5x5xx-5xx5x5xx-5xx5x5------| 
Eb|----333-3333-3333-3333-3333-3333-3333-3333-0xx0x0xx-0xx0x0xx-0xx0x0------| 



eb|--------------| 
Bb|--------------| 
Gb|--------------| 
Db|--------------| 
Ab|--7-5---------| 
Eb|------7-5-3-0-| 

eb|------------| 
Bb|------------| 
Gb|-9-7--------| 
Db|-----9--5---| 
Ab|----------7-| 
Eb|------------| 


refrão
Em G D Feed my eyes A Can you sew them shut? Em G D Jesus Christ A Deny your maker Em G D He Who Tries A Will be wasted Em G D Feed my Eyes A Now You've sew them shut!
eb|----------------------| Bb|-15----15-------------| Gb|-14b16-14b16-12-------| Db|----------------14-12-| Ab|----------------------| Eb|----------------------| Solo: eb|------------------------------------------------------------------------| Bb|---------------------------------------10b12(11x)-10b11(7x)-10b12r10-8--| Gb|----------------7h9b12-9-7--------------------------------------------9-| Db|-0h2p0-(15x)-7h9----------9-8-7-5-7b8r7---------------------------------| Ab|------------------------------------------------------------------------| Eb|------------------------------------------------------------------------| eb|-------------------------------------------------------12-15-15b17r15------| Bb|-----12h15p12-----12h15p12-----12h15p12-----12h15b17-12--------------------| Gb|14b16--------14b16--------14b16--------14b16-------------------------14-12-| Db|---------------------------------------------------------------------------| Ab|---------------------------------------------------------------------------| Eb|---------------------------------------------------------------------------| eb|---------------------------------------------------------------10--| Bb|-------------------------------------12-11-10----------------------| Gb|-------------------12---14b15r14-12-----------12b14-12b14r12--9----| Db|------5-------12h14--14------------14------------------------------| Ab|--------7----------------------------------------------------------| Eb|-3-5/7-------------------------------------------------------------| eb|--12-15-15b17r15-12----------------------------------------------------| Bb|12-----------------15--8----8---------8---8---8------5-----------------| Gb|-----------------------7----7---------7---7---7--2/4---4/2-0-2p0-------| Db|-----------------------6----6---------6---6---6------------------2p0-2-| Ab|-----------------------7----7-----2---7---7---7----------------------2-| Eb|-------------------------0----0-3-------0---0------------------------0-|
fixar
fixar inscrever-se

enviado porenviado por: anônimo
cifra enviadaCorrigida por: Acelot
logo top cifrasComente
ico música do artistaMúsicas deste artista
ico curtiuCurtiu?
ico destaqueDestaque
Petaxxon Comunicação Online

Cifras.com.br - Melhor e mais completo site de cifras e tablaturas do Brasil Mais de 1 milhão de acordes de músicas cadastradas desde 2003
As informações contidas no nosso site são colaborações de seus usuários e podem conter erros, sendo assim, não nos responsabilizamos sobre nenhuma destas.

close
menos
mais
close
Cor dos acordes:

Cor da letra:

close
Alinhar acordes a direita Alinhar acordes a esquerda Alinhar acordes em baixo Alinhar acordes no topo
close
  Mostrar todos os acordes Esconder acordes muito fáceis Esconder acordes fáceis Esconder acordes intermediários
redimensionar
glossário