Cifras e Tablaturas
Cifras Cancelar Versão de Impressão
cifras

Alice in Chains - Would?

fixar na tela  
Exibindo: vídeo-aula ver clipes redimensionar

Tom:

F

ver outros tons
  Intro: 

eb|------------------------------------------------------------| 
Bb|----------------------5-----------------------------------5-| 
Gb|------------------------6---4h6--4h6-4---4h6-4h6-4------4---| 
Db|----------------------------4----4---4h5-4---4---4h5-/5-----| 
Ab|------12ha------12ha----------------------------------------| 
Eb|-12ha------12ha---------------------------------------------| 

eb|-----------------------------------| 
Bb|-----------------------------------| 
Gb|-4h6--4h6-4---4h6-4-4h6-4----------| 
Db|-4----4---4h5-4-----4---4h6------2-| 
Ab|-------------------------------2---| 
Eb|----------------------------/3-----| 

Part A: 

eb|---------------------------------| 
Bb|---------------------------------| 
Gb|---------------------------------| 
Db|-------------------------------2-| 
Ab|-2h4-2h4-2----2h4-2h4-2------2---| 
Eb|-2---2---2h3--2---2---2h3-/3-----| 

eb|---------------------------| 
Bb|---------------------------| 
Gb|---------------------------| 
Db|---------------------------| 
Ab|-2h4-2h4-2----2h4-2h4-2----| 
Eb|-2---2---2h3--2---2---2h3--| 

Chorus: B5 G 


Solo: 

eb|------------------------------------------------------------------------| 
Bb|-----------------------------7-10---------------------------------------| 
Gb|-6h7p6h7p6h7p6h7p6h7-7/11~-9------6~-4p6h4~-2-2b4-----------------------| 
Db|-------------------------------------------------4p2-4~--2h4------------| 
Ab|-------------------------------------------------------------4~--2h4-2~-| 
Eb|------------------------------------------------------------------------| 

Part B: D5 Ab5 G5 E5 

End: D5 
  

cifra enviadasem correções
enviado porenviada por:Acelot
top 5 | alice in chains
top rock grunge
Outras músicas do artista letras do(a) Alice in Chains
Top cifras »Top artistas »
Petaxxon Comunicação Online
Cifras.com.br - Melhor e mais completo site de cifras e tablaturas do Brasil
Mais de 1 milhão de acordes de músicas cadastradas desde 2003
As informações contidas no nosso site são colaborações de seus usuários e podem conter erros, sendo assim, não nos responsabilizamos sobre nenhuma destas.
close
menos
mais
close
Cor dos acordes:

Cor da letra:

 

save
close
close
 
redimensionar