Cifras e Tablaturas
Allan Holdsworth

Allan Holdsworth

Countdown

Cifras Cancelar Versão de Impressão Print

Allan Holdsworth - Countdown

Tom:

  • 0:00 / 0:00
  
 
 
 
|------------3-|-1------------4-|-5-6-9-------------14-|-12----10-9-------| 
|--------1-4---|--------1-4-6---|-------11-12-14-15----|-------------10---| 
|------3-------|----------------|----------------------|------------------| 
|--------------|----------------|----------------------|------------------| 
|--------------|----------------|----------------------|------------------| 
|--------------|----------------|----------------------|------------------| 
 
 
 
|-8-------7-6---5-|-4---------4--|-9-12-11-9-7-12-------|----------12-10-8-7---| 
|-----------------|--------------|----------------13----|-10-12-13-----------8-| 
|-----------------|--------------|-------------------12-|----------------------| 
|-----------------|--------------|----------------------|----------------------| 
|-----------------|--------------|----------------------|----------------------| 
|-----------------|--------------|----------------------|----------------------| 
 
 
  |-8---------|-6--7-(7)-9--7--9-(9)-10--|----------10-8-|------------| 
|-----------|--------------------------|------8-9------|-10---------| 
|-----------|--------------------------|---------------|------------| 
|-----------|--------------------------|---------------|------------| 
|-----------|--------------------------|---------------|------------| 
|-----------|--------------------------|---------------|------------| 
 
 
  
|----------------------|-------------------------| 
|----------------------|-------------------------| 
|----------------------|-------------------------| 
|-------------------13-|-------13-15-16-17-19-20-| 
|----------12-14-15----|-13-15-------------------| 
|----12-14-------------|-------------------------| 
 
 
   
|-----------------------|-------------------------| 
|-----------------------|-------------------------| 
|----------14-12--------|-------------------------| 
|-19-17-15-------13-----|-15-17-19----------------| 
|-------------------14--|----------20-------------| 
|-----------------------|-------------21-19-17-19-| 
 
 
 
|---------------------------|-6-10-8----------| 
|---------------------------|-----------------| 
|---------------------------|---------------6-| 
|---------------19----------|-----------6-8---| 
|-17-19-(19)-21----21-22-24-|-----------------| 
|---------------------------|-----------------| 
 
 
 |-----3-5-6-7-9-11-|-12-15-14-12-10-13-12-10-| 
|-4-5--------------|-------------------------| 
|------------------|-------------------------| 
|------------------|-------------------------| 
|------------------|-------------------------| 
|------------------|-------------------------| 
 
 
|-8-13-12-------12-------|----------------13----| 
|---------13-13----13-13-|-12-11----11-12-------| 
|------------------------|-------11-------------| 
|------------------------|----------------------| 
|------------------------|----------------------| 
|------------------------|----------------------| 
 
 
  |----------------------------------|-8-12-10-8-7-5-3-3-| 
|-14-15---16-17-16---15-14-12-10-8-|-------------------| 
|----------------------------------|-------------------| 
|----------------------------------|-------------------| 
|----------------------------------|-------------------| 
|----------------------------------|-------------------| 
 
 
 |-(3)------------|-1---2-6-9------|-----5-9-------5-|-10----(10)-8-(8)-6--| 
|--------------2-|----------------|---7---------7---|---------------------| 
|----------1-3---|----------------|-9---------9-----|---------------------| 
|----------------|----------------|-----------------|---------------------| 
|----------------|----------------|-----------------|---------------------| 
|----------------|----------------|-----------------|---------------------| 
 
 
|-5-------3-5-|-8-11-10-8-6-10-8-6-|-5-3-2-5-3-2-1-3-|---2-1---------------| 
|-------------|--------------------|-----------------|-4-----4-3--1-(1)----| 
|-------------|--------------------|-----------------|------------------3--| 
|-------------|--------------------|-----------------|---------------------| 
|-------------|--------------------|-----------------|---------------------| 
|-------------|--------------------|-----------------|---------------------| 
 
 
   
|------*| 
|------*| 
|-2----*| 
|------*| 
|------*| 
|------*| 
 
Transcrito por Júlio Vallim 

enviado porenviado por: Vallim guitar
cifra enviadaCorrigida por: sem correções
logo top cifrasComente
ico música do artistaMúsicas deste artista
ico curtiuCurtiu?
ico destaqueDestaque
Petaxxon Comunicação Online

Cifras.com.br - Melhor e mais completo site de cifras e tablaturas do Brasil Mais de 1 milhão de acordes de músicas cadastradas desde 2003
As informações contidas no nosso site são colaborações de seus usuários e podem conter erros, sendo assim, não nos responsabilizamos sobre nenhuma destas.

close
menos
mais
close
Cor dos acordes:

Cor da letra:

close
Alinhar acordes a direita Alinhar acordes a esquerda Alinhar acordes em baixo Alinhar acordes no topo
close
  Mostrar todos os acordes Esconder acordes muito fáceis Esconder acordes fáceis Esconder acordes intermediários
redimensionar
glossário