Cifras e Tablaturas
Alphabetics

Alphabetics

Paint Paint Paint

Cifras Cancelar Versão de Impressão
cifras

Alphabetics - Paint Paint Paint

fixar na tela  
Exibindo: vídeo-aula ver clipes redimensionar

Tom:

  
Intro 

00:00 
  Guitar 1 
e|---11--|-?--------x---|-?--------X--|-?--------x--|-?-------x--|-?--------x--|-?--| 
B|---9---|-|--------x---|-|--------X--|-|--------x--|-|-------x--|-|--------x--|-|--------| 
G|---9---|-|--(X4)--x---|-|--------6--|-|--------x--|-|--(2)--6--|-|--(X1)--x--|-|--------| 
D|---11--|-|--------11--|-|--(X3)--7--|-|--(X1)--11-|-|-------7--|-|--------11-|-|-(x1----| 
A|---9---|-|--------11--|-|--------7--|-|--------11-|-|-------7--|-|--------11-|-|--------| 
E|---x---V-|--------9---V-|--------5--V-|--------9--V-|-------5--V-|--------9--V-|--------| 

  Guitar 2 
e|---------------------------------------------------------------------------------| 
B|---------------------------------12-10-9\---10-9----10-9--------10-9\--10-9------| 
G|-------------------------------------------------9\------9\---9-------------9~~~-| 
D|---------------------------------------------------------------------------------| 
A|---------------------------------------------------------------------------------| 
E|---------------------------------------------------------------------------------| 

 00:19 
Guitar 1&2 
e|------------------------------x--x-----x--x---x----------------------------| 
B|----------0~~----------0~~----x--x-----x--x---x------11h12p11--------------| 
G|----------8~~----------8~~----x--x-----x--x---11~~------------11------11---| 
D|----9-------------9-----------9--9-----9--9---13~~--------------13--13-----| 
A|------11------------11--------11-11---11-11---11~~----------------11-------| 
E|--0-------------0-------------9--9-----9--9---x----------------------------| 

e|-x--?-|-?-|--------------| 
B|-x--|-|-|-|----------------| 
G|-x--|-|-|-|----------------| 
D|-9--|-|-|-|----------------| 
A|-11-|-|-|-|----------------| 
E|-9--|-v-|-v----------------| 

00:31 
  Guitar 1 
e|--x-x-x-x-x-x-x-x-x-x-x-x-x-x-x-x-x-x-x-x-x-x-x-x-x-x-x-x-x-x-x-x-x---x--x---x--x---x----| 
B|--x-x-x-x-x-x-x-x-x-x-x-x-x-x-x-x-x-x-x-x-x-x-x-x-x-x-x-x-x-x-x-x-x---x--x---x--x---11---| 
G|--x-x-x-x-x-x-x-x-x-x-x-x-x-x-x-x-x-x-x-x-x-x-x-x-x-x-x-x-x-x-x-x-x---x--x---x--x---11~~-| 
D|--11-11-11-11-11-11-11-11-11-11-11-11-11-11-11-11-11-11-11-11-11-11---9--9---9--9---13~~-| 
A|--13-13-13-13-13-13-13-13-13-13-13-13-13-13-13-13-13-13-13-13-13-13---11-11--11-11--11~~-| 
E|--11-11-11-11-11-11-13-11-11-11-11-11-11-11-11-11-11-11-11-11-11-11---9--9---9--9---x----| 

  Guitar 2 
e|--------------------------------------------------------------------| 
B|--------------------------------------------------------------------| 
G|--------------------------------------------------------------------| 
D|--------------------------------------------------------------------| 
A|--13-13-13-13-3-13-14-14-14-14-14-13-13-13-13-11-11-11-11-9-9-9-9---| 
E|--------------------------------------------------------------------| 

00:40 
  Guitar 1/2 
e|--x--x--x-----|------------------------|----x--x\-------------------| 
B|--x--x--11~~--|-------11h12p11---------|----12-x\-------------------| 
G|--x--x--11~~--|-----11--------11-------|----11-x\-------------------| 
D|--9--9--13~~--|---13------------13-(x8)|----13-x\-------------------| 
A|--11-11-11~~--|-11---------------------|----11-x\-------------------| 
E|--9--9--x-----|------------------------|----x--x\-------------------| 

00:52 
 Guitar 1 
e|--x-x--x-x\---------------------------------------------------------| 
B|--x-x--7-7\---------------------------------------------------------| 
G|--9-9--9-9\---------------------------------------------------------| 
D|--9-9--9-9\--(x8)---------------------------------------------------| 
A|--x-x--x-x\---------------------------------------------------------| 
E|--9-9--9-9\---------------------------------------------------------| 

(Guitar 2 solo) 
e|--------------------------------------------------------------------| 
B|------------9-12-9\------------9\-----------------------------------| 
G|-------9-11---------------9-11--------------------------------------| 
D|--9/11---------------9/11-------------------------------------------| 
A|--------------------------------------------------------------------| 
E|--------------------------------------------------------------------| 

1:06 
 Guitar 1 
e|---4-x-4---x-x-x/x-x-x---x-x--x-x\----------------------------------| 
B|---5-x-5---x-x-x/x-x-x---x-x--7-7\----------------------------------| 
G|---6-x-6---x-x-x/x-x-x---9-9--9-9\----------------------------------| 
D|---7-x-7---4-4-4/6-6-6---9-9--9-9\----------------------------------| 
A|---7-x-7---4-4-4/6-6-6---x-x--x-x\----------------------------------| 
E|---5-x-5---2-2-2/4-4-4---9-9--9-9\----------------------------------| 

1:29 
 Guitar 1 
e|--------------------------------------------------------------------| 
B|-2-2-2-2-2-2-2-2--4-4-4-4-4-----------------------------------------| 
G|-2-2-2-2-2-2-2-2--4-4-4-4-4-----------------------------------------| 
D|-2-2-2-2-2-2-2-2--4-4-4-4-4-----------------------------------------| 
A|-x-x-x-x-x-x-x-x--x-x-x-x-x-----------------------------------------| 
E|-2-2-2-2-2-2-2-2--4-4-4-4-4-----------------------------------------| 

1:32 
|||(Back to the beginning)|| 

(Guitar 2 solo) 
2:25                 2:38 
e|------------------|----------------------------------------| 
B|------------------|----------------------------------------| 
G|------------------|----------------12b---------------------| 
D|------------------|----------9~~---------------------------| 
A|-9/11~~-----------|--9/11~~--------------------------------| 
E|------------------|----------------------------------------| 

3:16 
 Guitar 1 
e|--0-----0-----4----4---------------------------------------| 
B|--0-----0-----4----4---------------------------------------| 
G|--1-----1-----4----4---------------------------------------| 
D|--2-----2-----6----6---------------------------------------| 
A|--2-----2-----6----6---------------------------------------| 
E|--0-----0-----4----4---------------------------------------| 

3:29 
 Guitar 1/2 
e|-----------------------------------------------------------| 
B|--9x------7x\-------4x--------7x---------------------------| 
G|--9x-(x7)-8x\--(x7)-4x--(x7)--8x--(x7)---------------------| 
D|--9x------9x\-------4x--------9x---------------------------| 
A|-----------------------------------------------------------| 
E|-----------------------------------------------------------| 

4:05 
 Guitar 1/2 
e|--6-?-|------------------------------------------------------| 
B|--x-|-|-------------------------------------------------------| 
G|--x-|-|--(x7)-------------------------------------------------|End 
D|--6-|-|--------6-6-6-6-6--------------------------------------| 
A|--6-|-|--------6-6-6-6-6--------------------------------------| 
E|--4-|-V--------4-4-4-4-4--------------------------------------| 

********************************** 
| /   slide up 
| \   slide down 
| h   hammer-on 
| p   pull-off 
| ~   let ring 
| x   Mute note 
| b   Bend 
********************************** 
  

top 5 | alphabetics
top rock'n roll
Outras músicas do artista letras do(a) Alphabetics
Top cifras »Top artistas »
Petaxxon Comunicação Online
Cifras.com.br - Melhor e mais completo site de cifras e tablaturas do Brasil
Mais de 1 milhão de acordes de músicas cadastradas desde 2003
As informações contidas no nosso site são colaborações de seus usuários e podem conter erros, sendo assim, não nos responsabilizamos sobre nenhuma destas.
close
menos
mais
close
Cor dos acordes:

Cor da letra:

 

save
close
close
 
redimensionar