Cifras e Tablaturas
Alvvays

Alvvays

Not My Baby

Cifras Cancelar Versão de Impressão
cifras

Alvvays - Not My Baby

fixar na tela  
Exibindo: vídeo-aula ver clipes redimensionar

Tom:

  Intro 
e|-----------------------------0-|-----------------------------0-|-----------------------------0-| 
B|---1---1---1---1---1---1---1---|---1---1---1---1---1---1---1---|---1---1---1---1---1---1---1---| 
G|-0---0---0---0---0---0---0-----|-0---0---0---0---0---0---0-----|-0---0---0---0---0---0---0-----| 
D|-------------------------------|-------------------------------|-------------------------------| 
A|-------------------------------|-------------------------------|-------------------------------| 
E|-------------------------------|-------------------------------|-------------------------------| 

e|-----------------------------|-------3-3-0---------|-------3-3-0---------| 
B|---1---1---1---1---1---1---1-|---1----------0------|---1----------0------| 
G|-0---0---0---0---0---0---0---|-0---0-----------2-0-|-0---0-----------2-0-| 
D|-----------------------------|---------------------|---------------------| 
A|-----------------------------|---------------------|---------------------| 
E|-----------------------------|---------------------|---------------------| 

e|-------------3-3-0---------|-------------3-3-0---------|-------------3-3-0---------| 
B|---------1----------0------|---------1----------0------|---------1----------0------| 
G|-------0---0-----------2-0-|-------0---0-----------2-0-|-------0---0-----------2-0-| 
D|---------------------------|---------------------------|---------------------------| 
A|---------------------------|---------------------------|---------------------------| 
E|---------------------------|---------------------------|---------------------------| 

Verse 
No Guitar 

Pre-Chorus 
e|--------------------------------------|--------------------------------------| 
B|-1-/3-/5-/6-\3-\1-/6-\5--0------------|-1-/3-/5-/6-\3-\1-/6-\5--0------------| 
G|--0--0--0--0--0--0--0--0---2-0--------|--0--0--0--0--0--0--0--0---2-0--------| 
D|--------------------------------------|--------------------------------------| 
A|--------------------------------------|--------------------------------------| 
E|--------------------------------------|--------------------------------------| 

e|----3--0-----5--0-----3--5-0----3-|----3--0-----5--0-----3--5-0----3-|----3--0-----5--0-----3--5-0----3-| 
B|-------------------0----------0---|-------------------0----------0---|-------------------0----------0---| 
G|-5--------5-----------------------|-5--------5-----------------------|-5--------5-----------------------| 
D|----------------------------------|----------------------------------|----------------------------------| 
A|----------------------------------|----------------------------------|----------------------------------| 
E|----------------------------------|----------------------------------|----------------------------------| 

  F                          C                           
e|--------------------------|--------------------------| 
B|--------------------------|--------------------------| 
G|--------------------------|--------------------------| 
D|--------------------------|--------------------------| 
A|--------------------------|--------------------------| 
E|--------------------------|--------------------------| 

  F                          C                           
e|--------------------------|--------------------------| 
B|--------------------------|--------------------------| 
G|--------------------------|--------------------------| 
D|--------------------------|--------------------------| 
A|--------------------------|--------------------------| 
E|--------------------------|--------------------------| 

  F                          C                          G                           
e|--------------------------|--------------------------|--------------------------| 
B|--------------------------|--------------------------|--------------------------| 
G|--------------------------|--------------------------|--------------------------| 
D|--------------------------|--------------------------|--------------------------| 
A|--------------------------|--------------------------|--------------------------| 
E|--------------------------|--------------------------|--------------------------| 

e|--------------------------------------|--------------------------------------| 
B|-1-/3-/5-/6-\3-\1-/6-\5--0------------|-1-/3-/5-/6-\3-\1-/6-\5--0------------| 
G|--0--0--0--0--0--0--0--0---2-0--------|--0--0--0--0--0--0--0--0---2-0--------| 
D|--------------------------------------|--------------------------------------| 
A|--------------------------------------|--------------------------------------| 
E|--------------------------------------|--------------------------------------| 

Turnaround 
      C               Am        Em 
Your light is like a faded radio 
     F               Am          G 
The lake was frozen over long ago 

Synth 
  Dm7                       G                         Cmaj7                     F            F/E           
e|-------------------------|-------------------------|-------------------------|------------|------------| 
B|-------------------------|-------------------------|-------------------------|------------|------------| 
G|-------------------------|-------------------------|-------------------------|------------|------------| 
D|-------------------------|-------------------------|-------------------------|------------|------------| 
A|-------------------------|-------------------------|-------------------------|------------|------------| 
E|-------------------------|-------------------------|-------------------------|------------|------------| 

  Dm7                       G                         Cmaj7                     F            F/E           
e|-------------------------|-------------------------|-------------------------|------------|------------| 
B|-------------------------|-------------------------|-------------------------|------------|------------| 
G|-------------------------|-------------------------|-------------------------|------------|------------| 
D|-------------------------|-------------------------|-------------------------|------------|------------| 
A|-------------------------|-------------------------|-------------------------|------------|------------| 
E|-------------------------|-------------------------|-------------------------|------------|------------| 

  Dm7                       G                         Cmaj7                     F            F/E           
e|-------------------------|-------------------------|-------------------------|------------|------------| 
B|-------------------------|-------------------------|-------------------------|------------|------------| 
G|-------------------------|-------------------------|-------------------------|------------|------------| 
D|-------------------------|-------------------------|-------------------------|------------|------------| 
A|-------------------------|-------------------------|-------------------------|------------|------------| 
E|-------------------------|-------------------------|-------------------------|------------|------------| 

  Dm7                       G                         Cmaj7                     F            F/E           
e|-------------------------|-------------------------|-------------------------|------------|------------| 
B|-------------------------|-------------------------|-------------------------|------------|------------| 
G|-------------------------|-------------------------|-------------------------|------------|------------| 
D|-------------------------|-------------------------|-------------------------|------------|------------| 
A|-------------------------|-------------------------|-------------------------|------------|------------| 
E|-------------------------|-------------------------|-------------------------|------------|------------| 

Hook 
  Dm7                       G                         Cmaj7                     F            F/E           
e|----------------12--12-12|-------------------------|-------------------------|------------|------------| 
B|-------------------------|-------------------------|-------------------------|------------|------------| 
G|-------------------------|-------------------------|-------------------------|------------|------------| 
D|-------------------------|-------------------------|-------------------------|------------|------------| 
A|-------------------------|-------------------------|-------------------------|------------|------------| 
E|-------------------------|-------------------------|-------------------------|------------|------------| 
                  xx  xx xx                                                                                

  Dm7                       G                         Cmaj7                     F            F/E           
e|-------------------------|-------------------------|-------------------------|------------|------------| 
B|-------------------------|-------------------------|-------------------------|------------|------------| 
G|-------------------------|-------------------------|-------------------------|------------|------------| 
D|-------------------------|-------------------------|-------------------------|------------|------------| 
A|-------------------------|-------------------------|-------------------------|------------|------------| 
E|-------------------------|-------------------------|-------------------------|------------|------------| 

Bridge 
C              G           F        C 
You sought an eye, so did I for an island 
C              G           F        C 
You sought an eye, so did I for an eye 
C           G             F           C 
Traded my rose-coloured shades for a wide lens 
C                G           F         C 
Used to make noise now I much prefer silence 

Outro 
e|----------------------------0--0--0--0--0--0--|----------------------------0--0--0--0--0--0--| 
B|--1-/3-/5-/6-\3-\1-/6-\5--0--1--1/-3--3/-5--5-|--1-/3-/5-/6-\3-\1-/6-\5--0--1--1/-3--3/-5--5-| 
G|---0--0--0--0--0--0--0--0---------------------|---0--0--0--0--0--0--0--0---------------------| 
D|----------------------------------------------|----------------------------------------------| 
A|----------------------------------------------|----------------------------------------------| 
E|----------------------------------------------|----------------------------------------------| 

e|----------------------------0--0--0--0--0--0--|----------------------------0--0--0--0--0--0--| 
B|--1-/3-/5-/6-\3-\1-/6-\5--0--1--1/-3--3/-5--5-|--1-/3-/5-/6-\3-\1-/6-\5--0--1--1/-3--3/-5--5-| 
G|---0--0--0--0--0--0--0--0---------------------|---0--0--0--0--0--0--0--0---------------------| 
D|----------------------------------------------|----------------------------------------------| 
A|----------------------------------------------|----------------------------------------------| 
E|----------------------------------------------|----------------------------------------------| 

e|---------------------------0--2--5-0-|---------------------------0--2--5-0-| 
B|-1-/3-/5-/6-\3-\1-/6-\5--0-----------|-1-/3-/5-/6-\3-\1-/6-\5--0-----------| 
G|--0--0--0--0--0--0--0--0-------------|--0--0--0--0--0--0--0--0-------------| 
D|-------------------------------------|-------------------------------------| 
A|-------------------------------------|-------------------------------------| 
E|-------------------------------------|-------------------------------------| 

e|-----3--0-----5--0-----3--5-0-------|-----3--0-----5--0-----3--5-0-------| 
B|--------------------0---------------|--------------------0---------------| 
G|--5--------5------------------------|--5--------5------------------------| 
D|------------------------------------|------------------------------------| 
A|------------------------------------|------------------------------------| 
E|------------------------------------|------------------------------------| 



************************************ 

| /  Slide up 
| \  Slide down 

************************************ 
  

cifra enviadasem correções
enviado porenviada por:tercmoraes
top 5 | alvvays
top rock'n roll
Outras músicas do artista letras do(a) Alvvays
Top cifras »Top artistas »
Petaxxon Comunicação Online
Cifras.com.br - Melhor e mais completo site de cifras e tablaturas do Brasil
Mais de 1 milhão de acordes de músicas cadastradas desde 2003
As informações contidas no nosso site são colaborações de seus usuários e podem conter erros, sendo assim, não nos responsabilizamos sobre nenhuma destas.
close
menos
mais
close
Cor dos acordes:

Cor da letra:

 

save
close
close
 
redimensionar