Cifras e Tablaturas
Alvvays

Alvvays

Plimsoll Punks

Cifras Cancelar Versão de Impressão
cifras

Alvvays - Plimsoll Punks

fixar na tela  
Exibindo: vídeo-aula ver clipes redimensionar
  
Intro 
e|-7-----7---8-7-------------------------------------------------| 
B|---8----8------------------------------------------------------| 
G|-----7---7-----------------------------------------------------| 
D|---------------------------------------------------------------| 
A|---------------------------------------------------------------| 
E|---------------------------------------------------------------| 

Verse 
e|---------------------------------------------------------------| 
B|-------------------------1-------------------------------------| 
G|-5--------------5--------2-------------------------------------| 
D|-5-(x12)--0-----3-(x12)--2--0----------------------------------| 
A|-3--------2-----3--------0--2----------------------------------| 
E|----------3-----------------3----------------------------------| 

You're a plimsoll punk... 
    F     Am    G     F     Am    G 
e|---------------------------------------------------------------| 
B|--1-----1-----0-----1-----1-----0------------------------------| 
G|--2-----2-----0-----2-----2-----0------------------------------| 
D|--3-----2-----0-----3-----2-----0-------------------0-2-3------| 
A|--3-----0-----2-----3-----0-----2-------------0-2-3------------| 
E|--------------3-----------------3---------1-3------------------| 

Chorus x3 (strum along with song)  
    C   F   Am  G 
e|---------------------------------------------------------------| 
B|--1---1---1---0--1--0------------------------------------------| 
G|--0---2---2---0--0--0------------------------------------------| 
D|--2---3---2---0--0--0------------------------------------------| 
A|--3---3---0---2--2--2------------------------------------------| 
E|--------------3--3--3------------------------------------------| 

Chorus pt 2 (you're a plimsoll punk) 
     F   G 
e|---------------------------------------------------------------| 
B|---1---0-------------------------------------------------------| 
G|---2---0-------------------------------------------------------| 
D|---3---0-------------------------------------------------------| 
A|---3---2-------------------------------------------------------| 
E|-------3-------------------------------------------------------| 

verse 2 
e|---7-----7---------8----8--------7----7--------8------10--8----| 
B|-----8-----8---8-----8----8---8----8----8---8----10------------| 
G|-7-----7-----7---7-----7----7---9----9----9---9-----9---9------| 
D|---------------------------------------------------------------| 
A|---------------------------------------------------------------| 
E|---------------------------------------------------------------| 

verse 2 cont. x3 
e|--8----7-8----8-7----------------------------------------------| 
B|---------------------------------------------------------------| 
G|---------------------------------------------------------------| 
D|---------------------------------------------------------------| 
A|---------------------------------------------------------------| 
E|---------------------------------------------------------------| 

You're a plimsoll punk... 
    F     Am    G     F     Am    G 
e|---------------------------------------------------------------| 
B|--1-----1-----0-----1-----1-----0------------------------------| 
G|--2-----2-----0-----2-----2-----0------------------------------| 
D|--3-----2-----0-----3-----2-----0---------3-2-0----------------| 
A|--3-----0-----2-----3-----0-----2---------------3-2-0----------| 
E|--------------3-----------------3---------------------3--------| 

Chorus x3 (strum along with song)  
    C   F   Am  G 
e|---------------------------------------------------------------| 
B|--1---1---1---0--1--0------------------------------------------| 
G|--0---2---2---0--0--0------------------------------------------| 
D|--2---3---2---0--0--0------------------------------------------| 
A|--3---3---0---2--2--2------------------------------------------| 
E|--------------3--3--3------------------------------------------| 

Chorus pt 2 (you're a plimsoll punk) 
     F   G 
e|---------------------------------------------------------------| 
B|---1---0-------------------------------------------------------| 
G|---2---0-------------------------------------------------------| 
D|---3---0-------------------------------------------------------| 
A|---3---2-------------------------------------------------------| 
E|-------3-------------------------------------------------------| 

Bridge x3 
e|---7-----7---------8----8---------7----7--------8------10-8----| 
B|-----8-----8---8-----8-----8---8----8----8---8----10-----------| 
G|-7-----7-----7---7-----7-----7---9----9----9---9-----9---------| 
D|---------------------------------------------------------------| 
A|---------------------------------------------------------------| 
E|---------------------------------------------------------------| 

Breakdown 
e|----15-------14-------13-------10-------12---------------------| 
B|------15-------14-------13-------10-------12-------------------| 
G|-/16----16-15----15-14----14-10----10-12----12-----------------| 
D|---------------------------------------------------------------| 
A|---------------------------------------------------------------| 
E|---------------------------------------------------------------| 

e|---------------------------------------------------------------| 
B|-10-10-10-10-8-8-8-8--12-12-13-13-14-14------------------------| 
G|-10-10-10-10-9-9-9-9--12-12-14-14-15-15------------------------| 
D|---------------------------------------------------------------| 
A|---------------------------------------------------------------| 
E|---------------------------------------------------------------| 

e|----15-------14-------13-------10-------12---------------------| 
B|------15-------14-------13-------10-------12-------------------| 
G|-/16----16-15----15-14----14-10----10-12----12-----------------| 
D|---------------------------------------------------------------| 
A|---------------------------------------------------------------| 
E|---------------------------------------------------------------| 

e|---------------------------------------------------------------| 
B|-10-10-10-10-8-8-8-8-------------------------------------------| 
G|-10-10-10-10-9-9-9-9-------------------------------------------| 
D|---------------------------------------------------------------| 
A|---------------------------------------------------------------| 
E|---------------------------------------------------------------| 

(spacey sounds) 

Solo 
e|-13--12--13-12-----------12-12-----12--------------------------| 
B|---------------15--13-15--------15-----15-13-12-13-15----------| 
G|---------------------------------------------------------------| 
D|---------------------------------------------------------------| 
A|---------------------------------------------------------------| 
E|---------------------------------------------------------------| 

e|-13--12--13-12-----------12----------12-13-12------------------| 
B|---------------15--13-15----15-13-15----------15---------------| 
G|---------------------------------------------------------------| 
D|---------------------------------------------------------------| 
A|---------------------------------------------------------------| 
E|---------------------------------------------------------------| 

Chorus x3 (strum along with song)  
    C   F   Am  G 
e|---------------------------------------------------------------| 
B|--1---1---1---0--1--0------------------------------------------| 
G|--0---2---2---0--0--0------------------------------------------| 
D|--2---3---2---0--0--0------------------------------------------| 
A|--3---3---0---2--2--2------------------------------------------| 
E|--------------3--3--3------------------------------------------| 

Chorus pt 2 (you're a plimsoll punk) 
     F   G 
e|---------------------------------------------------------------| 
B|---1---0-------------------------------------------------------| 
G|---2---0-------------------------------------------------------| 
D|---3---0-------------------------------------------------------| 
A|---3---2-------------------------------------------------------| 
E|-------3-------------------------------------------------------| 

Ending solo 
e|---3-----0-1-3-1----1-0--0-----0-------------------------------| 
B|-1---1-3---------/5-----3--3-----3-----------------------------| 
G|-----------------------------0-----0---------------------------| 
D|---------------------------------------------------------------| 
A|---------------------------------------------------------------| 
E|---------------------------------------------------------------| 

e|---3-----0-1-3-1---5-3-----3-----------------------------------| 
B|-1---1-3---------5-----0-----0---------------------------------| 
G|-------------------------0-----0-------------------------------| 
D|---------------------------------------------------------------| 
A|---------------------------------------------------------------| 
E|---------------------------------------------------------------| 


| /  slide up 
| \  slide down 
| h  hammer-on 
| p  pull-off 
| ~  vibrato 
| +  harmonic 
| x  Mute note 
  

cifra enviadasem correções
enviado porenviada por:LINEKERS
top 5 | alvvays
top rock'n roll
Outras músicas do artista letras do(a) Alvvays
Top cifras »Top artistas »
Petaxxon Comunicação Online
Cifras.com.br - Melhor e mais completo site de cifras e tablaturas do Brasil
Mais de 1 milhão de acordes de músicas cadastradas desde 2003
As informações contidas no nosso site são colaborações de seus usuários e podem conter erros, sendo assim, não nos responsabilizamos sobre nenhuma destas.
close
menos
mais
close
Cor dos acordes:

Cor da letra:

 

save
close
close
 
redimensionar