Cifras e Tablaturas
Amir Benayoun

Amir Benayoun

Yehalelu

Cifras Cancelar Versão de Impressão
cifras

Amir Benayoun - Yehalelu

fixar na tela  
Exibindo: vídeo-aula ver clipes redimensionar

Tom:

  
Intro 

e|-----------|------5--------|-----------|--------------------| 
B|--7h8-8-8--|--5-7---8-7-8--|--7-8-7----|------7-7-10-8-8-8--| 
G|-----------|---------------|--------8--|--8-9---------------| 
D|-----------|---------------|-----------|--------------------| 
A|-----------|---------------|-----------|--------------------| 
E|-----------|---------------|-----------|--------------------| 

0:20 
e|---------|-----------|-----------|------5--------| 
B|--5-4-5--|--5-7-8-8--|--5-8-7-4--|--5h7---8-7-8--| 
G|---------|-----------|-----------|---------------| 
D|---------|-----------|-----------|---------------| 
A|---------|-----------|-----------|---------------| 
E|---------|-----------|-----------|---------------| 

0:30 
e|------------|------5--------|-------------|--------------|---------| 
B|--5--5-4-5--|--5-7---8-7-8--|------8-7----|----7-10p8-8--|--8-7----| 
G|------------|---------------|--8/9-----8--|--9-----------|------9--| 
D|------------|---------------|-------------|--------------|---------| 
A|------------|---------------|-------------|--------------|---------| 
E|------------|---------------|-------------|--------------|---------| 
                                                            Singing enters 
                                                             Right on ‘9’ 

Chorus 

1:14  
e|--0-2-3--|--3-3-2-0-0------|---------|-------8-----------| 
B|---------|------------3-3--|--0-1-3--|----10----7-5-3-3--| 
G|---------|-----------------|---------|--9----------------| 
D|---------|-----------------|---------|-------------------| 
A|---------|-----------------|---------|-------------------| 
E|---------|-----------------|---------|-------------------| 

During Chorus the guitar is not very audible at some parts,  
it’s playing the first three bars of the above and then “mumbles” 

1:45 transition to Verse 
e|---------------------| 
B|---------------------| 
G|--5p4---5/4----------| 
D|---------------------| 
A|---------------------| 
E|---------------------| 


1:56  faint electric guitar 
e|------------------|---------------------| 
B|----------0-0h1---|--0h1-0--------------| 
G|------0-2---------|--------2-0-2---0----| 
D|--2-4-------------|--------------4---2--| 
A|------------------|---------------------| 
E|------------------|---------------------| 

2:10  classical guitar 
e|---------------7-8-10-8--|--8-7--|----8-7--|---------------| 
B|--------7-8-10-----------|-------|--7------|--8-7-8---7----| 
G|--9-8-9------------------|-------|---------|------------9--| 
D|-------------------------|-------|---------|---------------| 
A|-------------------------|-------|---------|---------------| 
E|-------------------------|-------|---------|---------------| 


2:24   faint electric guitar    2:26   classical guitar 

e|--0---3---2---0-------------|--7h8-7-5-3-5-3-2-3-2-0---| 
B|----0---0---0---------------|--------------------------| 
G|----------------------------|--------------------------| 
D|----------------------------|--------------------------| 
A|----------------------------|--------------------------| 
E|----------------------------|--------------------------| 

2:30 
e|------------5-7-5--------------------| 
B|--5-7-8---8-------8-7-8-5-5---5-4-5--| 
G|-------------------------------------| 
D|-------------------------------------| 
A|-------------------------------------| 
E|-------------------------------------| 


Second Chorus is basically the same as the first: 

e|--0-2-3--|--3-3-2-0-0------|---------|-------8-----------| 
B|---------|------------3-3--|--0-1-3--|----10----7-5-3-3--| 
G|---------|-----------------|---------|--9----------------| 
D|---------|-----------------|---------|-------------------| 
A|---------|-----------------|---------|-------------------| 
E|---------|-----------------|---------|-------------------| 


The Beautiful OUTRO 

3:32 
e|--7-5--7--|--------2-3-------2-3-5-7-7---7-8-10--8-7-8--| 
B|----------|--5-4-5-------4-5----------------------------| 
G|----------|---------------------------------------------| 
D|----------|---------------------------------------------| 
A|----------|---------------------------------------------| 
E|----------|---------------------------------------------| 

3:40 
e|--7-7--7-7--5-8-7------|------7--7-8-8/10---10-10-8-8-8-7-8--| 
B|------------------8----|--8-7--------------------------------| 
G|--------------------9--|-------------------------------------| 
D|-----------------------|-------------------------------------| 
A|-----------------------|-------------------------------------| 
E|-----------------------|-------------------------------------| 

e|--8-10-7-7-7----------------7------------| 
B|-------------10-10--8-8-8-7---8-8-8-7-8--| 
G|-----------------------------------------| 
D|-----------------------------------------| 
A|-----------------------------------------| 
E|-----------------------------------------| 

e|---------------7----7-8-10---10-10-7-8------8-7-------------------| 
B|------7-8-8-10----------------------------------10---7-8-5-5-4-5--| 
G|--8-9-------------------------------------------------------------| 
D|------------------------------------------------------------------| 
A|------------------------------------------------------------------| 
E|------------------------------------------------------------------| 

3:59 
e|-----------------------------5-5----7-7-7-5---8-7---10-8-7--7----8-7------| 
B|--4-5-5-4---4-7-7-5---5-8-7------8----------------------------10-----8-8--| 
G|--------------------------------------------------------------------------| 
D|--------------------------------------------------------------------------| 
A|--------------------------------------------------------------------------| 
E|--------------------------------------------------------------------------| 

e|-------7---7/10----10-10-10-12-12/8--8-8-7-8---10-10-7-7---7-----8-7--------| 
B|--8-10-------------------------------------------------------10------8p7h8--| 
G|----------------------------------------------------------------------------| 
D|----------------------------------------------------------------------------| 
A|----------------------------------------------------------------------------| 
E|----------------------------------------------------------------------------| 

The last 8p7h8 is my addition in order to add an actual ending, since the song fades out. 



************************************ 

| h  Hammer-on 
| p  Pull-off 
| /  Slide up 

************************************ 
  

top 5 | amir benayoun
top rock'n roll
Outras músicas do artista letras do(a) Amir Benayoun
Top cifras »Top artistas »
Petaxxon Comunicação Online
Cifras.com.br - Melhor e mais completo site de cifras e tablaturas do Brasil
Mais de 1 milhão de acordes de músicas cadastradas desde 2003
As informações contidas no nosso site são colaborações de seus usuários e podem conter erros, sendo assim, não nos responsabilizamos sobre nenhuma destas.
close
menos
mais
close
Cor dos acordes:

Cor da letra:

 

save
close
close
 
redimensionar