Cifras e Tablaturas
Amir Lev

Amir Lev

Shmulik

Cifras Cancelar Versão de Impressão
cifras

Amir Lev - Shmulik

fixar na tela  
Exibindo: vídeo-aula ver clipes redimensionar

Tom:

F

ver outros tons
  
Intro: 
            F                  
e|-----------------------| 
B|-------------0---------| 
G|--------0------0---0---|x3 
D|-----------------------| 
A|-----3----3------3-----| 
E|---1-------------------| 

      F                     Am 
e|-------------------0--|---------------------------------| 
B|-------------0h1-3----|-------0---1------1-----0h1p0----| 
G|--------0-------------|---------2----2-----2------------| 
D|----------------------|-----2----------2-----2----------| 
A|-----3----3-----------|---0-----------------------------| 
E|---1------------------|---------------------------------| 


VERSE 
      F                                        Am 
e|-------------------------|--------------|---------------------------| 
B|-------0--1-------0---1--|-----1---3-1--|-------0---1--------0---1--| 
G|-----2--2-------2---2----|-------2------|-----2---2--------2---2----| 
D|---3----------3----------|--3-----------|---2------------2----------| 
A|-------------------------|--------------|---------------------------| 
E|-------------------------|--------------|---------------------------| 


Fingerpick 
     Fmaj7    C  C/B       Am 
e|----0-------0---0--------0-----------------| 
B|----1-------1---1--------1-----------------| 
G|----2-------0---0--------2-----------------| 
D|----3-------2---0--------2-----------------| 
A|------------3---2--------0-----------------| 
E|-------------------------------------------| 


e|-------------------------------------0-----| 
B|--------0---1-------0---1------0-1-3-------| 
G|------0---0-------0---0------0-------------| 
D|-------------------------------------------| 
A|---3------------3---------------------- ---| 
E|-------------------------------------------| 


Chorus 
e|---0--------0--------1-------1-------------| 
B|---1--------1--------3-------1-------------| 
G|---0--------0--------2-------2-------------| 
D|---2--------0--------0-------3-------------| 
A|---3--------2----------------3-------------| 
E|-----------------------------1-------------| 

*********************************** 
| h   Hummer-on 
| p   Pull-off 
*********************************** 
  

cifra enviadasem correções
enviado porenviada por:lucicamargo
top 5 | amir lev
top rock'n roll
Outras músicas do artista letras do(a) Amir Lev
Top cifras »Top artistas »
Petaxxon Comunicação Online
Cifras.com.br - Melhor e mais completo site de cifras e tablaturas do Brasil
Mais de 1 milhão de acordes de músicas cadastradas desde 2003
As informações contidas no nosso site são colaborações de seus usuários e podem conter erros, sendo assim, não nos responsabilizamos sobre nenhuma destas.
close
menos
mais
close
Cor dos acordes:

Cor da letra:

 

save
close
close
 
redimensionar