Cifras e Tablaturas
Amorphis

Amorphis

On A Stranded Shore

Cifras Cancelar Versão de Impressão
cifras

Amorphis - On A Stranded Shore

fixar na tela  
Exibindo: vídeo-aula ver clipes redimensionar

Tom:

  
Intro                  
(0:00) 
D|-15-14-12---14--12----------------------------------| 
A|----------15--------12--12-13-12--------------------| 
F|---------------------------------14-12--11h12p11----| 
C|-------------------------------------------------14-| 
G|----------------------------------------------------| 
D|----------------------------------------------------| 

D|-15-14-12---14-----------------------------------------------| 
A|----------15---15--13-12------------13-12----13-12-----------| 
F|-------------------------14~--12-14-------14-------14-12-14v-| 
C|-------------------------------------------------------------| 
G|-------------------------------------------------------------| (x3) 
D|-------------------------------------------------------------| 

Verse 
(0:40)       (0:53) 
D|----------|--------------| 
A|----------|--------------| 
F|----------|--------------| 
C|----------|-7-7~-------7-| 
G|-2~-------|-5-5~-------5-| 
D|-0~-------|-------5-5----| 
                    * * 

Riff A (0:55) 
D|---------------------------|-----------------------------|-----------------| 
A|---------------------------|-----------------------------|-----------------| 
F|---------------------------|-----------------------------|-----------------| 
C|-9---9---9-9---9---9\7/9\7-|-----9---9---9---------------|-----------------| 
G|-7---7---7-7---7---7\5/7\5-|-----7---7---7-----------777-|-7-7-7-7-7-7-7-7-| 
D|---0---0-----0---0---------|-0-0---0---0---0-5-0-5-0-555-|-5-5-5-5-5-5-5-5-| 
     *   *     *   *           * *   *   *   * * * * *       * * * * * * * * 

D|-----------------|-----------------|-----------------|-------| 
A|-----------------|-----------------|-----------------|-------| 
F|-----------------|-----------------|-----------------|-------| 
C|-5-5-5-5-5-5-5-5-|-2-2-2-2-2-2-2-2-|-7-7-7-7-7-7-7-7-|-7-7-7-| 
G|-3-3-3-3-3-3-3-3-|-0-0-0-0-0-0-0-0-|-5-5-5-5-5-5-5-5-|-5-5-5-| 
D|-----------------|-----------------|-----------------|-------| 
   * * * * * * * *   * * * * * * * *   * * * * * * * * 

D|---------------------------|-----------------------------|-----------------|----------------| 
A|---------------------------|-----------------------------|-----------------|----------------| 
F|---------------------------|-----------------------------|-----------------|----------------| 
C|-9---9---9-9---9---9\7/9\7-|-----9---9---9---------------|-----------------|-5~---2~---7~---| 
G|-7---7---7-7---7---7\5/7\5-|-----7---7---7-----------777-|-7-7-7-7-7-7-7-7-|-3~---0~---5~---| 
D|---0---0-----0---0---------|-0-0---0---0---0-5-0-5-0-555-|-5-5-5-5-5-5-5-5-|----------------| 
     *   *     *   *           * *   *   *   * * * * *       * * * * * * * * 

Pre-Chorus 
(1:25) 
D|-----------------------------------------| 
A|-----------------------------------------| 
F|----------------9~-----------------------| 
C|------7~---9~---9~---7~---5~---2~---7~---| 
G|-5~---5~---7~--------5~---3~---0~---5~---| 
D|-3~--------------------------------------| 

Chorus 
(1:39) 
D|-15-14-12---14--12----------------------------------| 
A|----------15--------12--12-13-12--------------------| 
F|---------------------------------14-12--11h12p11----| 
C|-------------------------------------------------14-| 
G|----------------------------------------------------| 
D|----------------------------------------------------| 

D|-15-14-12---14-----------------------------------------------| 
A|----------15---15--13-12------------13-12----13-12-----------| 
F|-------------------------14~--12-14-------14-------14-12-14v-| 
C|-------------------------------------------------------------| 
G|-------------------------------------------------------------| (x3) 
D|-------------------------------------------------------------| 

verse 2                          
(2:06) 
Riff A (0:55) 
D|---------------------------|-----------------------------|-----------------| 
A|---------------------------|-----------------------------|-----------------| 
F|---------------------------|-----------------------------|-----------------| 
C|-9---9---9-9---9---9\7/9\7-|-----9---9---9---------------|-----------------| 
G|-7---7---7-7---7---7\5/7\5-|-----7---7---7-----------777-|-7-7-7-7-7-7-7-7-| 
D|---0---0-----0---0---------|-0-0---0---0---0-5-0-5-0-555-|-5-5-5-5-5-5-5-5-| 
     *   *     *   *           * *   *   *   * * * * *       * * * * * * * * 

D|-----------------|-----------------|-----------------|-------| 
A|-----------------|-----------------|-----------------|-------| 
F|-----------------|-----------------|-----------------|-------| 
C|-5-5-5-5-5-5-5-5-|-2-2-2-2-2-2-2-2-|-7-7-7-7-7-7-7-7-|-7-7-7-| 
G|-3-3-3-3-3-3-3-3-|-0-0-0-0-0-0-0-0-|-5-5-5-5-5-5-5-5-|-5-5-5-| 
D|-----------------|-----------------|-----------------|-------| 
   * * * * * * * *   * * * * * * * *   * * * * * * * * 

D|---------------------------|-----------------------------|-----------------|----------------| 
A|---------------------------|-----------------------------|-----------------|----------------| 
F|---------------------------|-----------------------------|-----------------|----------------| 
C|-9---9---9-9---9---9\7/9\7-|-----9---9---9---------------|-----------------|-5~---2~---7~---| 
G|-7---7---7-7---7---7\5/7\5-|-----7---7---7-----------777-|-7-7-7-7-7-7-7-7-|-3~---0~---5~---| 
D|---0---0-----0---0---------|-0-0---0---0---0-5-0-5-0-555-|-5-5-5-5-5-5-5-5-|----------------| 
     *   *     *   *           * *   *   *   * * * * *       * * * * * * * * 

Pre-Chorus 
(2:35) 
D|-----------------------------------------| 
A|-----------------------------------------| 
F|----------------9~-----------------------| 
C|------7~---9~---9~---7~---5~---2~---7~---| 
G|-5~---5~---7~--------5~---3~---0~---5~---| (x2) 
D|-3~--------------------------------------| 

(3:02) 
D|--------------| 
A|--------------| 
F|-7--9--11--12-| 
C|-x--x---x--x--| 
G|-5--7---9--10-| 
D|--------------| 

Solo 
(3:05) 
D|----------------------------------------------------------------------------| 
A|-----------15---------------------------------------------------------------| 
F|-12v~---12----14v~---12-11-11h12p11-----------------------------------------| 
C|------------------------------------12h14p12--------------------------------| 
G|---------------------------------------------12h14p12-10h12p10-9h10p9-7h9p7-| 
D|----------------------------------------------------------------------------| 

D|------------------------------------------------------14h15~-14-14----------| 
A|-------7h8p7-----10---------7-8-7----------------------------------15~------| 
F|---7-9-------9-7----9-7---7-------9bv~---7-7v~------------------------------| 
C|-8----------------------9---------------------------------------------------| 
G|----------------------------------------------------------------------------| 
D|----------------------------------------------------------------------------| 

Chorus 
(3:20) 
D|-15-14-12---14--12----------------------------------| 
A|----------15--------12--12-13-12--------------------| 
F|---------------------------------14-12--11h12p11----| 
C|-------------------------------------------------14-| 
G|----------------------------------------------------| 
D|----------------------------------------------------| 

D|-15-14-12---14-----------------------------------------------| 
A|----------15---15--13-12------------13-12----13-12-----------| 
F|-------------------------14~--12-14-------14-------14-12-14v-| 
C|-------------------------------------------------------------| 
G|-------------------------------------------------------------| (x3) 
D|-------------------------------------------------------------| 

Outro 
(3:46) 
D|----------| 
A|----------| 
F|----------| 
C|----------| 
G|-2~-------| 
D|-0~-------| 


************************************ 

| h  Hammer-on 
| p  Pull-off 
| ~  Vibrato 
| /  Slide up 
| \  Slide down 
| x  Dead note 

************************************ 
  

top 5 | amorphis
top heavy metal
Outras músicas do artista letras do(a) Amorphis
Top cifras »Top artistas »
Petaxxon Comunicação Online
Cifras.com.br - Melhor e mais completo site de cifras e tablaturas do Brasil
Mais de 1 milhão de acordes de músicas cadastradas desde 2003
As informações contidas no nosso site são colaborações de seus usuários e podem conter erros, sendo assim, não nos responsabilizamos sobre nenhuma destas.
close
menos
mais
close
Cor dos acordes:

Cor da letra:

 

save
close
close
 
redimensionar