Cifras e Tablaturas
Anathema

Anathema

Judgment

Cifras Cancelar Versão de Impressão
cifras

Anathema - Judgment

fixar na tela  
Exibindo: vídeo-aula ver clipes redimensionar
  
Drop-D tuning 

Intro 
  G1 
E|--5-------------|----------------|5-6-------------|----------------| 
B|8-----6---------|----------------|6-----5---------|----------------| 
G|7---------------|----------------|7---------------|----------------| 
D|----------------|----------------|----------------|----------------| 
A|----------------|----------------|----------------|----------------| 
D|----------------|----------------|----------------|----------------| 
 |G2 
E|----------------|----------------|----------------|----------------| 
B|----------------|----------------|----------------|----------------| 
G|----------------|----------------|----------------|----------------| 
D|----0-------0---|----0-------0---|----0-------0---|----0-------0---| X2 
A|----------------|----------------|----------------|----------------| 
D|0-------0-------|0-------0-------|0-------0-------|0-------0-------| 
 |Keyboards 
E|----5-----------|----------------|--------6-------|----------------| 
B|----6-----------|----------------|--------5-------|----------------| 
G|----------------|----------------|----------------|----------------| 
D|----------------|----------------|----------------|----------------| 
A|----------------|----------------|----------------|----------------| 
D|----------------|----------------|----------------|----------------| 

verse 1 

E|--5-------------|----------------|5-6-------------|----------------| 
B|8-----6---------|----------------|6-----5---------|----------------| 
G|7---------------|----------------|7---------------|----------------| 
D|----------------|----------------|----------------|----------------| 
A|----------------|----------------|----------------|----------------| 
D|----------------|----------------|----------------|----------------| 
 | 
E|----------------|----------------|----------------|----------------| 
B|----------------|----------------|----------------|----------------| 
G|----------------|----------------|----------------|----------------| 
D|----0-------0---|----0-------0---|----0-------0---|----0-------0---| X2 
A|----------------|----------------|----------------|----------------| 
D|0-------0-------|0-------0-------|0-------0-------|0-------0-------| 
 | 
E|----5-----------|----------------|--------6-------|----------------| 
B|----6-----------|----------------|--------5-------|----------------| 
G|----------------|----------------|----------------|----------------| 
D|----------------|----------------|----------------|----------------| 
A|----------------|----------------|----------------|----------------| 
D|----------------|----------------|----------------|----------------| 


E|1-0-------------|----------------|1-0-------------|----------------| 
B|3-----3---------|----------------|3-----3---------|----------------| 
G|2-----3---------|----------------|2-----3---------|----------------| 
D|0-----0---------|----------------|0-----0---------|----------------| 
A|----------------|----------------|----------------|----------------| 
D|----------------|----------------|----------------|----------------| 
 |  
E|----------------|----------------|----------------|----------------| 
B|----------------|----------------|----------------|----------------| 
G|----------------|----------------|----------------|----------------| 
D|----0-------0---|----0-------0---|----0-------0---|----0-------0---| 
A|----------------|----------------|----------------|----------------| 
D|0-------0-------|0-------0-------|0-------0-------|0-------0-------| 
 | 
E|----5-----------|----------------|--------6-------|----------------| 
B|----6-----------|----------------|--------5-------|----------------| 
G|----------------|----------------|----------------|----------------| 
D|----------------|----------------|----------------|----------------| 
A|----------------|----------------|----------------|----------------| 
D|----------------|----------------|----------------|----------------| 


E|----------------|----------------|----------------|----------------| 
B|1-3---3---------|----------------|1-3---3---------|----------------| 
G|2-----2---------|----------------|2-----2---------|----------------| 
D|0-----0---------|----------------|0-----0---------|----------------| 
A|----------------|----------------|----------------|----------------| 
D|----------------|----------------|----------------|----------------| 
 |  
E|----------------|----------------|----------------|----------------| 
B|----------------|----------------|----------------|----------------| 
G|----------------|----------------|----------------|----------------| 
D|----0-------0---|----0-------0---|----0-------0---|----0-------0---| 
A|----------------|----------------|----------------|----------------| 
D|0-------0-------|0-------0-------|0-------0-------|0-------0-------| 
 | 
E|----5-----------|----------------|--------6-------|----------------| 
B|----6-----------|----------------|--------5-------|----------------| 
G|----------------|----------------|----------------|----------------| 
D|----------------|----------------|----------------|----------------| 
A|----------------|----------------|----------------|----------------| 
D|----------------|----------------|----------------|----------------| 


E|1-0-------------|----------------|1-0-------------|----------------| 
B|3-----3---------|----------------|3-----3---------|----------------| 
G|2-----3---------|----------------|2-----3---------|----------------| 
D|0-----0---------|----------------|0-----0---------|----------------| 
A|----------------|----------------|----------------|----------------| 
D|----------------|----------------|----------------|----------------| 
 |  
E|----------------|----------------|----------------|----------------| 
B|----------------|----------------|----------------|----------------| 
G|----------------|----------------|----------------|----------------| 
D|----0-------0---|----0-------0---|----0-------0---|----0-------0---| 
A|----------------|----------------|----------------|----------------| 
D|0-------0-------|0-------0-------|0-------0-------|0-------0-------| 
 | 
E|----5-----------|----------------|--------6-------|----------------| 
B|----6-----------|----------------|--------5-------|----------------| 
G|----------------|----------------|----------------|----------------| 
D|----------------|----------------|----------------|----------------| 
A|----------------|----------------|----------------|----------------| 
D|----------------|----------------|----------------|----------------| 


E|----------------|----------------| 
B|1-3---3---------|----------------| 
G|2-----2---------|----------------| 
D|0-----0---------|----------------| 
A|----------------|----------------| 
D|----------------|----------------| 
 |  
E|----------------|----------------| 
B|----------------|----------------| 
G|----------------|----------------| 
D|----0-------0---|----0-------0---| 
A|----------------|----------------| 
D|0-------0-------|0-------0-------| 
 | 
E|----5-----------|----------------| 
B|----6-----------|----------------| 
G|----------------|----------------| 
D|----------------|----------------| 
A|----------------|----------------| 
D|----------------|----------------| 

verse 2 

E|--5-------------|----------------|5-6-------------|----------------| 
B|8-----6---------|----------------|6-----5---------|----------------| 
G|7---------------|----------------|7---------------|----------------| 
D|----------------|----------------|----------------|----------------| 
A|----------------|----------------|----------------|----------------| 
D|----------------|----------------|----------------|----------------| 
 | 
E|----------------|----------------|----------------|----------------| 
B|----------------|----------------|----------------|----------------| 
G|----------------|----------------|----------------|----------------| 
D|----0-------0---|----0-------0---|----0-------0---|----0-------0---| X2 
A|----------------|----------------|----------------|----------------| 
D|0-------0-------|0-------0-------|0-------0-------|0-------0-------| 
 | 
E|----5-----------|----------------|--------6-------|----------------| 
B|----6-----------|----------------|--------5-------|----------------| 
G|----------------|----------------|----------------|----------------| 
D|----------------|----------------|----------------|----------------| 
A|----------------|----------------|----------------|----------------| 
D|----------------|----------------|----------------|----------------| 

  G1 
E|----------------|----------------|----------------|----------------| 
B|6-5---3-----3---|----3-------3---|6-5---3-----3---|----3-------3---| 
G|7-5---3-----3---|----3-------3---|7-5---3-----3---|----3-------3---| 
D|0-0---0-----0---|----0-------0---|0-0---0-----0---|----0-------0---| 
A|----------------|----------------|----------------|----------------| 
D|----------------|----------------|----------------|----------------| 
 |G2     
E|----------------|----------------|----------------|----------------| 
B|----------------|----------------|----------------|----------------| 
G|----------------|----------------|----------------|----------------| 
D|----0-------0---|----0-------0---|----0-------0---|----0-------0---| 
A|----------------|----------------|----------------|----------------| 
D|0-------0-------|0-------0-------|0-------0-------|0-------0-------| 

                                                                       x2 
E|----------------|----------------|----------------|----------------| 
B|1-3---3-----3---|----3-------3---|1-3---3-----3---|----3-------3---| 
G|2-----2-----2---|----2-------2---|2-----2-----2---|----2-------2---| 
D|0---0-0-----0---|----0-------0---|0---0-0-----0---|----0-------0---| 
A|----------------|----------------|----------------|----------------| 
D|----------------|----------------|----------------|----------------| 
 |     
E|----------------|----------------|----------------|----------------| 
B|----------------|----------------|----------------|----------------| 
G|----------------|----------------|----------------|----------------| 
D|----0-------0---|----0-------0---|----0-------0---|----0-------0---| 
A|----------------|----------------|----------------|----------------| 
D|0-------0-------|0-------0-------|0-------0-------|0-------0-------| 


E|----------------|----------------|----------------|----------------| 
B|1-3---3-----3---|----3-------3---|----3-------3---|----3-------3---| 
G|2-----2-----2---|----2-------2---|----2-------2---|----2-------2---| 
D|0---0-0-----0---|----0-------0---|----0-------0---|----0-------0---| 
A|----------------|----------------|----------------|----------------| 
D|----------------|----------------|----------------|----------------| 
 |     
E|----------------|----------------|----------------|----------------| 
B|----3-------3---|----3-------3---|----3-------3---|----3-------3---| 
G|----2-------2---|----2-------2---|----2-------2---|----2-------2---| 
D|----0-------0---|----0-------0---|----0-------0---|----0-------0---| 
A|----------------|----------------|----------------|----------------| 
D|0-------0-------|0-------0-------|0-------0-------|0-------0-------| 


E|----------------|----------------|----------------|----------------| 
B|----3---3-3-3-3-|----3---3-3-3-3-|----3---3-3-3-3-|----3---3-3-3-3-| 
G|----2---2-2-2-2-|----2---2-2-2-2-|----2---2-2-2-2-|----2---2-2-2-2-| 
D|----0---0-0-0-0-|----0---0-0-0-0-|----0---0-0-0-0-|----0---0-0-0-0-| 
A|----------------|----------------|----------------|----------------| 
D|----------------|----------------|----------------|----------------| 
 | 
E|----------------|----------------|----------------|----------------| 
B|----3-------3---|----3-------3---|----3-------3---|----3-------3---| 
G|----2-------2---|----2-------2---|----2-------2---|----2-------2---| 
D|----0-------0---|----0-------0---|----0-------0---|----0-------0---| 
A|----------------|----------------|----------------|----------------| 
D|0-------0-------|0-------0-------|0-------0-------|0-------0-------| 


E|----------------|----------------| 
B|----3---3-3-3-3-|3---------------| 
G|----2---2-2-2-2-|2------------12/| 
D|----0---0-0-0-0-|0------------x--| 
A|----------------|0------------10/| 
D|----------------|0---------------| 
 | 
E|----------------|----------------| 
B|----3-------3---|3---------------| 
G|----2-------2---|2---------------| 
D|----0-------0---|0---------------| 
A|----------------|0---------------| 
D|0-------0-------|0---------------| 

Instrumental Section 

E|------------------------------------------------|------------------------------------------------| 
B|------------------------------------------------|------------------------------------------------| 
G|15-------14----14----12----12----14----14-14-14-|10----10-------10-10-10-10----10-------10-10-10-| 
D|x--------x-----x-----x-----x-----x-----x--x--x--|x-----x--------x--x--x--x-----x--------x--x--x--| 
A|13-------12----12----10----10----12----12-12-12-|8-----8--------8--8--8--8-----8--------8--8--8--| 
D|------------------------------------------------|------------------------------------------------| 
 |1  e  +  a  2  e  +  a  3  e  +  a  4  e  +  a   1  e  +  a  2  e  +  a  3  e  +  a  4  e  +  a     
E|------------------------------------------------|------------------------------------------------| 
B|3-----------------------------------------------|------------------------------------------------| 
G|2-----------------------------------------------|------------------------------------------------| 
D|0-----------------------------------------------|------------------------------------------------| 
A|0-----------------------------------------------|------------------------------------------------| 
D|0-----------------------------------------------|------------------------------------------------| 
  

E|------------------------------------------------|------------------------------------------------| 
B|------------------------------------------------|------------------------------------------------| 
G|12----12-------12-12-12-12----12----------12/15-|15-15----14-14----12-12-12-12-14-14-14-14-14-14-| 
D|x-----x--------x--x--x--x-----x-----------x--x--|x--x-----x--x-----x--x--x--x--x--x--x--x--x--x--| 
A|10----10-------10-10-10-10----10----------10/13-|13-13----12-12----10-10-10-10-12-12-12-12-12-12-| 
D|------------------------------------------------|------------------------------------------------| 
 |                                                 x  x     x  x     x  x  x  x  x  x  x  x  x  x 
E|------------------------------------------------|------------------------------------------------| 
B|------------------------------------------------|------------------------------------------------| 
G|------------------------------------------------|------------------------------------------------| 
D|------------------------------------------------|0-----0-----0--0--0--0--0-----0-----0--0--0--0--| 
A|------------------------------------------------|0-----0-----0--0--0--0--0-----0-----0--0--0--0--| 
D|------------------------------------------------|0-----0-----0--0--0--0--0-----0-----0--0--0--0--| 


E|------------------------------------------------|------------------------------------------------| 
B|------------------------------------------------|------------------------------------------------| 
G|10----10----10-10-10-10-10----10----10-10-10-/--|12----12----12-12-12-12-12----12----12-12-12/15-| 
D|x-----x-----x--x--x--x--x-----x-----x--x--x--x--|x-----x-----x--x--x--x--x-----x-----x--x--x--x--| 
A|8-----8-----8--8--8--8--8-----8-----8--8--8--/--|10----10----10-10-10-10-10----10----10-10-10/13-| 
D|------------------------------------------------|------------------------------------------------| 
 | 
E|------------------------------------------------|------------------------------------------------| 
B|------------------------------------------------|------------------------------------------------| 
G|------------------------------------------------|------------------------------------------------| 
D|3-----3-----3--3--3--3--3-----3-----3--3--3--3--|5-----5-----5--5--5--5--5-----5-----5--5--5--5--| 
A|3-----3-----3--3--3--3--3-----3-----3--3--3--3--|5-----5-----5--5--5--5--5-----5-----5--5--5--5--| 
D|3-----3-----3--3--3--3--3-----3-----3--3--3--3--|5-----5-----5--5--5--5--5-----5-----5--5--5--5--| 


E|------------------------------------------------|------------------------------------------------| 
B|------------------------------------------------|------------------------------------------------| 
G|15-15----14-14----12-12-12-12-14-14-14-14-14-14-|10----10----10-10-10-10-10----10----10-10-10-/--| 
D|x--x-----x--x-----x--x--x--x--x--x--x--x--x--x--|x-----x-----x--x--x--x--x-----x-----x--x--x--x--| 
A|13-13----12-12----10-10-10-10-12-12-12-12-12-12-|8-----8-----8--8--8--8--8-----8-----8--8--8--/--| 
D|------------------------------------------------|------------------------------------------------| 
 | 
E|------------------------------------------------|------------------------------------------------| 
B|------------------------------------------------|------------------------------------------------| 
G|------------------------------------------------|------------------------------------------------| 
D|0-----0-----0--0--0--0--0-----0-----0--0--0--0--|3-----3-----3--3--3--3--3-----3-----3--3--3--3--| 
A|0-----0-----0--0--0--0--0-----0-----0--0--0--0--|3-----3-----3--3--3--3--3-----3-----3--3--3--3--| 
D|0-----0-----0--0--0--0--0-----0-----0--0--0--0--|3-----3-----3--3--3--3--3-----3-----3--3--3--3--| 


E|------------------------------------------------|------------------------------------------------| 
B|------------------------------------------------|------------------------------------------------| 
G|12----12----12-12-12-12-12----12----12-12-12/15-|15-15----14-14----12-12-12-12-14-14-14-14-14-14-| 
D|x-----x-----x--x--x--x--x-----x-----x--x--x--x--|x--x-----x--x-----x--x--x--x--x--x--x--x--x--x--| 
A|10----10----10-10-10-10-10----10----10-10-10/13-|13-13----12-12----10-10-10-10-12-12-12-12-12-12-| 
D|------------------------------------------------|------------------------------------------------| 
 | 
E|------------------------------------------------|------------------------------------------------| 
B|------------------------------------------------|------------------------------------------------| 
G|------------------------------------------------|------------------------------------------------| 
D|5-----5-----5--5--5--5--5-----5-----5--5--5--5--|0-----0-----0--0--0--0--0-----0-----0--0--0--0--| 
A|5-----5-----5--5--5--5--5-----5-----5--5--5--5--|0-----0-----0--0--0--0--0-----0-----0--0--0--0--| 
D|5-----5-----5--5--5--5--5-----5-----5--5--5--5--|0-----0-----0--0--0--0--0-----0-----0--0--0--0--| 
   

E|------------------------------------------------|------------------------------------------------| 
B|------------------------------------------------|------------------------------------------------| 
G|10----10----10-10-10-10-10----10----10-10-10-/--|12----12----12-12-12-12-12----12----12-12-12----| 
D|x-----x-----x--x--x--x--x-----x-----x--x--x--x--|x-----x-----x--x--x--x--x-----x-----x--x--x-----| 
A|8-----8-----8--8--8--8--8-----8-----8--8--8--/--|10----10----10-10-10-10-10----10----10-10-10----| 
D|------------------------------------------------|------------------------------------------------| 
 | 
E|------------------------------------------------|------------------------------------------------| 
B|------------------------------------------------|------------------------------------------------| 
G|------------------------------------------------|------------------------------------------------| 
D|3-----3-----3--3--3--3--3-----3-----3--3--3--3--|5-----5-----5--5--5--5--5-----5-----5--5--5--5--| 
A|3-----3-----3--3--3--3--3-----3-----3--3--3--3--|5-----5-----5--5--5--5--5-----5-----5--5--5--5--| 
D|3-----3-----3--3--3--3--3-----3-----3--3--3--3--|5-----5-----5--5--5--5--5-----5-----5--5--5--5--| 


E|--------------------------------|--------------------------------| 
B|--------------------------------|--------------------------------| 
G|5/7-7-5/7-7-7---5/7-7-5/7-7-7---|5/7-7-5/7-7-7---5/7-7-5/7-7-7---| 
D|x-x-x-x-x-x-x---x-x-x-x-x-x-x---|x-x-x-x-x-x-x---x-x-x-x-x-x-x---| 
A|3/5-5-3/5-5-5---3/5-5-3/5-5-5---|3/5-5-3/5-5-5---3/5-5-3/5-5-5---| 
D|--------------------------------|--------------------------------| 
 | 
E|--------------------------------|--------------------------------| 
B|--------------------------------|--------------------------------| 
G|--------------------------------|--------------------------------| 
D|0-0-0-0-0-0-0---0-0-0-0-0-0-0---|0-0-0-0-0-0-0---0-0-0-0-0-0-0---| 
A|0-0-0-0-0-0-0---0-0-0-0-0-0-0---|0-0-0-0-0-0-0---0-0-0-0-0-0-0---| 
D|0-0-0-0-0-0-0---0-0-0-0-0-0-0---|0-0-0-0-0-0-0---0-0-0-0-0-0-0---| 

                                                                     X3 
E|--------------------------------|--------------------------------| 
B|--------------------------------|--------------------------------| 
G|7-----10----7---12----7-----7---|7-----10----7---12----7-----7---| 
D|x-----x-----x---x-----x-----x---|x-----x-----x---x-----x-----x---| 
A|5-----8-----5---10----5-----5---|5-----8-----5---10----5-----5---| 
D|--------------------------------|--------------------------------| 
 |        
E|--------------------------------|--------------------------------| 
B|--------------------------------|--------------------------------| 
G|--------------------------------|--------------------------------| 
D|8---8-8-8-8-8-8-8---8-8-8-8-7---|5---5-5-5-5-5-5-5---5-5-5-5-5-5-| 
A|8---8-8-8-8-8-8-8---8-8-8-8-7---|5---5-5-5-5-5-5-5---5-5-5-5-5-5-| 
D|8---8-8-8-8-8-8-8---8-8-8-8-7---|5---5-5-5-5-5-5-5---5-5-5-5-5-5-| 


E|--------------------------------|--------------------------------| 
B|--------------------------------|--------------------------------| 
G|5/7-7-5/7-7-7---5/7-7-5/7-7-7---|5/7-7-5/7-7-7---5/7-7-5/7-7-7---| 
D|x-x-x-x-x-x-x---x-x-x-x-x-x-x---|x-x-x-x-x-x-x---x-x-x-x-x-x-x---| 
A|3/5-5-3/5-5-5---3/5-5-3/5-5-5---|3/5-5-3/5-5-5---3/5-5-3/5-5-5---| 
D|--------------------------------|--------------------------------| 
 | 
E|--------------------------------|--------------------------------| 
B|--------------------------------|--------------------------------| 
G|--------------------------------|--------------------------------| 
D|0-0-0-0-0-0-0---0-0-0-0-0-0-0---|0-0-0-0-0-0-0---0-0-0-0-0-0-0---| 
A|0-0-0-0-0-0-0---0-0-0-0-0-0-0---|0-0-0-0-0-0-0---0-0-0-0-0-0-0---| 
D|0-0-0-0-0-0-0---0-0-0-0-0-0-0---|0-0-0-0-0-0-0---0-0-0-0-0-0-0---| 


E|--------------------------------|------------------------------------------------| 
B|--------------------------------|------------------------------------------------| 
G|7---7-7-7-7-7-7-7---7-7-7-7-7-7-|9-----9--9--9--9--9--9--10-10-10-10-12----12-12/| 
D|x---x-x-x-x-x-x-x---x-x-x-x-x-x-|x-----x--x--x--x--x--x--x--x--x--x--x-----x--x--| 
A|5---5-5-5-5-5-5-5---5-5-5-5-5-5-|7-----7--7--7--7--7--7--8--8--8--8--10----10-10/| 
D|--------------------------------|------------------------------------------------| 
 |       
E|--------------------------------|------------------------------------------------| 
B|--------------------------------|------------------------------------------------| 
G|--------------------------------|------------------------------------------------| 
D|8---8-8-8-8-8-8-8---8-8-8-8-8-8-|10----10-10-10-10-10-10-10----10-10-10-10-10-10-| 
A|8---8-8-8-8-8-8-8---8-8-8-8-8-8-|10----10-10-10-10-10-10-10----10-10-10-10-10-10-| 
D|8---8-8-8-8-8-8-8---8-8-8-8-8-8-|10----10-10-10-10-10-10-10----10-10-10-10-10-10-| 


E|------------------------------------------------|------------------------------------------------| 
B|------------------------------------------------|------------------------------------------------| 
G|15-15----14-14----12-12-12-12-14-14-14-14-14-14-|10----10----10-10-10-10-10----10----10-10-10-/--| 
D|x--x-----x--x-----x--x--x--x--x--x--x--x--x--x--|x-----x-----x--x--x--x--x-----x-----x--x--x--x--| 
A|13-13----12-12----10-10-10-10-12-12-12-12-12-12-|8-----8-----8--8--8--8--8-----8-----8--8--8--/--| 
D|------------------------------------------------|------------------------------------------------| 
 | 
E|------------------------------------------------|------------------------------------------------| 
B|------------------------------------------------|------------------------------------------------| 
G|------------------------------------------------|------------------------------------------------| 
D|0-----0-----0--0--0--0--0-----0-----0--0--0--0--|3-----3-----3--3--3--3--3-----3-----3--3--3--3--| 
A|0-----0-----0--0--0--0--0-----0-----0--0--0--0--|3-----3-----3--3--3--3--3-----3-----3--3--3--3--| 
D|0-----0-----0--0--0--0--0-----0-----0--0--0--0--|3-----3-----3--3--3--3--3-----3-----3--3--3--3--| 


E|------------------------------------------------|------------------------------------------------| 
B|------------------------------------------------|------------------------------------------------| 
G|12----12----12-12-12-12-12----12----12-12-12/15-|15-15----14-14----12-12-12-12-14-14-14-14-14-14-| 
D|x-----x-----x--x--x--x--x-----x-----x--x--x--x--|x--x-----x--x-----x--x--x--x--x--x--x--x--x--x--| 
A|10----10----10-10-10-10-10----10----10-10-10/13-|13-13----12-12----10-10-10-10-12-12-12-12-12-12-| 
D|------------------------------------------------|------------------------------------------------| 
 | 
E|------------------------------------------------|------------------------------------------------| 
B|------------------------------------------------|------------------------------------------------| 
G|------------------------------------------------|------------------------------------------------| 
D|5-----5-----5--5--5--5--5-----5-----5--5--5--5--|0-----0-----0--0--0--0--0-----0-----0--0--0--0--| 
A|5-----5-----5--5--5--5--5-----5-----5--5--5--5--|0-----0-----0--0--0--0--0-----0-----0--0--0--0--| 
D|5-----5-----5--5--5--5--5-----5-----5--5--5--5--|0-----0-----0--0--0--0--0-----0-----0--0--0--0--| 
   

E|------------------------------------------------|------------------------------------------------| 
B|------------------------------------------------|------------------------------------------------| 
G|10----10----10-10-10-10-10----10----10-10-10-/--|12----12----12-12-12-12-12-15-15-15-14-x--14----| 
D|x-----x-----x--x--x--x--x-----x-----x--x--x--x--|x-----x-----x--x--x--x--x--x--x--x--x--x--x-----| 
A|8-----8-----8--8--8--8--8-----8-----8--8--8--/--|10----10----10-10-10-10-13-13-13-13-12-x--12----| 
D|------------------------------------------------|------------------------------------------------| 
 | 
E|------------------------------------------------|------------------------------------------------| 
B|------------------------------------------------|------------------------------------------------| 
G|------------------------------------------------|------------------------------------------------| 
D|3-----3-----3--3--3--3--3-----3-----3--3--3--3--|5-----5-----5--5--5--5--5-----5-----5--5--5--5--| 
A|3-----3-----3--3--3--3--3-----3-----3--3--3--3--|5-----5-----5--5--5--5--5-----5-----5--5--5--5--| 
D|3-----3-----3--3--3--3--3-----3-----3--3--3--3--|5-----5-----5--5--5--5--5-----5-----5--5--5--5--| 


E|--------------------------------|--------------------------------| 
B|--------------------------------|--------------------------------| 
G|5/7-7-5/7-7-7---5/7-7-5/7-7-7---|5/7-7-5/7-7-7---5/7-7-5/7-7-7---| 
D|x-x-x-x-x-x-x---x-x-x-x-x-x-x---|x-x-x-x-x-x-x---x-x-x-x-x-x-x---| 
A|3/5-5-3/5-5-5---3/5-5-3/5-5-5---|3/5-5-3/5-5-5---3/5-5-3/5-5-5---| 
D|--------------------------------|--------------------------------| 
 | 
E|--------------------------------|--------------------------------| 
B|--------------------------------|--------------------------------| 
G|--------------------------------|--------------------------------| 
D|0-0-0-0-0-0-0---0-0-0-0-0-0-0---|0-0-0-0-0-0-0---0-0-0-0-0-0-0---| 
A|0-0-0-0-0-0-0---0-0-0-0-0-0-0---|0-0-0-0-0-0-0---0-0-0-0-0-0-0---| 
D|0-0-0-0-0-0-0---0-0-0-0-0-0-0---|0-0-0-0-0-0-0---0-0-0-0-0-0-0---| 

                                                                     X2 
E|--------------------------------|--------------------------------| 
B|--------------------------------|--------------------------------| 
G|7-----10----7---12----7---7-7---|7-----10----7---12----7---7-7---| 
D|x-----x-----x---x-----x---x-x---|x-----x-----x---x-----x---x-x---| 
A|5-----8-----5---10----5---5-5---|5-----8-----5---10----5---5-5---| 
D|--------------------------------|--------------------------------| 
 |x        
E|--------------------------------|--------------------------------| 
B|--------------------------------|--------------------------------| 
G|--------------------------------|--------------------------------| 
D|8---8-8-8-8-8-8-8---8-8-8-8-7---|5---5-5-5-5-5-5-5---5-5-5-5-5-5-| 
A|8---8-8-8-8-8-8-8---8-8-8-8-7---|5---5-5-5-5-5-5-5---5-5-5-5-5-5-| 
D|8---8-8-8-8-8-8-8---8-8-8-8-7---|5---5-5-5-5-5-5-5---5-5-5-5-5-5-| 


E|--------------------------------|--------------------------------| 
B|--------------------------------|--------------------------------| 
G|5/7-7-5/7-7-7---5/7-7-5/7-7-7---|5/7-7-5/7-7-7---5/7-7-5/7-7-7---| 
D|x-x-x-x-x-x-x---x-x-x-x-x-x-x---|x-x-x-x-x-x-x---x-x-x-x-x-x-x---| 
A|3/5-5-3/5-5-5---3/5-5-3/5-5-5---|3/5-5-3/5-5-5---3/5-5-3/5-5-5---| 
D|--------------------------------|--------------------------------| 
 | 
E|--------------------------------|--------------------------------| 
B|--------------------------------|--------------------------------| 
G|--------------------------------|--------------------------------| 
D|0-0-0-0-0-0-0---0-0-0-0-0-0-0---|0-0-0-0-0-0-0---0-0-0-0-0-0-0---| 
A|0-0-0-0-0-0-0---0-0-0-0-0-0-0---|0-0-0-0-0-0-0---0-0-0-0-0-0-0---| 
D|0-0-0-0-0-0-0---0-0-0-0-0-0-0---|0-0-0-0-0-0-0---0-0-0-0-0-0-0---| 


E|--------------------------------|--------------------------------| 
B|--------------------------------|--------------------------------| 
G|7-----10----7---12----7---7-7---|7-----10----7--/15----14--10----| 
D|x-----x-----x---x-----x---x-x---|x-----x-----x---x-----x---x-----| 
A|5-----8-----5---10----5---5-5---|5-----8-----5--/13----12--8-----| 
D|--------------------------------|--------------------------------| 
 |        
E|--------------------------------|--------------------------------| 
B|--------------------------------|--------------------------------| 
G|--------------------------------|--------------------------------| 
D|8---8-8-8-8-8-8-8---8-8-8-8-7---|5---5-5-5-5-5-5-5---5-5-5-5-5-5-| 
A|8---8-8-8-8-8-8-8---8-8-8-8-7---|5---5-5-5-5-5-5-5---5-5-5-5-5-5-| 
D|8---8-8-8-8-8-8-8---8-8-8-8-7---|5---5-5-5-5-5-5-5---5-5-5-5-5-5-| 


E|--------------------------------|--------------------------------| 
B|--------------------------------|--------------------------------| 
G|5/7-7-5/7-7-7---5/7-7-5/7-7-7---|5/7-7-5/7-7-7---5/7-7-5/7-7-7---| 
D|x-x-x-x-x-x-x---x-x-x-x-x-x-x---|x-x-x-x-x-x-x---x-x-x-x-x-x-x---| 
A|3/5-5-3/5-5-5---3/5-5-3/5-5-5---|3/5-5-3/5-5-5---3/5-5-3/5-5-5---| 
D|--------------------------------|--------------------------------| 
 | 
E|--------------------------------|--------------------------------| 
B|--------------------------------|--------------------------------| 
G|--------------------------------|--------------------------------| 
D|0-0-0-0-0-0-0---0-0-0-0-0-0-0---|0-0-0-0-0-0-0---0-0-0-0-0-0-0---| 
A|0-0-0-0-0-0-0---0-0-0-0-0-0-0---|0-0-0-0-0-0-0---0-0-0-0-0-0-0---| 
D|0-0-0-0-0-0-0---0-0-0-0-0-0-0---|0-0-0-0-0-0-0---0-0-0-0-0-0-0---| 


E|--------------------------------|------------------------------------------------| 
B|--------------------------------|------------------------------------------------| 
G|7---7-7-7-7-7-7-7---7-7-7-7-7-7-|9-----9--9--9--9--9--9--9-----9--9--9-----------| 
D|x---x-x-x-x-x-x-x---x-x-x-x-x-x-|x-----x--x--x--x--x--x--x-----x--x--x-----------| 
A|5---5-5-5-5-5-5-5---5-5-5-5-5-5-|7-----7--7--7--7--7--7--7-----7--7--7-----------| 
D|--------------------------------|------------------------------------------------| 
 |       
E|--------------------------------|------------------------------------------------| 
B|--------------------------------|------------------------------------------------| 
G|--------------------------------|------------------------------------------------| 
D|8---8-8-8-8-8-8-8---8-8-8-8-8-8-|10----10-10-10-10-10-10-10----10-10-10-10-10-10-| 
A|8---8-8-8-8-8-8-8---8-8-8-8-8-8-|10----10-10-10-10-10-10-10----10-10-10-10-10-10-| 
D|8---8-8-8-8-8-8-8---8-8-8-8-8-8-|10----10-10-10-10-10-10-10----10-10-10-10-10-10-| 

End 

E|------------------------------------------------| 
B|------------------------------------------------| 
G|15-15----14-14----12-12-12-12-14-xxxxxxxxxxxxxxx| 
D|x--x-----x--x-----x--x--x--x--x--xxxxxxxxxxxxxxx| Scrape strings with pick 
A|13-13----12-12----10-10-10-10-12-xxxxxxxxxxxxxxx| to simulate record scratch 
D|------------------------------------------------| 
 | 
E|------------------------------------------------| 
B|------------------------------------------------| 
G|---------------------------------xxxxxxxxxxxxxxx| 
D|0-----0-----0--0--0--0--0-----0--xxxxxxxxxxxxxxx| 
A|0-----0-----0--0--0--0--0-----0--xxxxxxxxxxxxxxx| 
D|0-----0-----0--0--0--0--0-----0-----------------| 



************************************ 

| x   Dead note 
| /   Slide up 
| \   Slide down 

************************************ 
  

cifra enviadasem correções
enviado porenviada por:brunblazkowski
top 5 | anathema
top rock'n roll
Outras músicas do artista letras do(a) Anathema
Top cifras »Top artistas »
Petaxxon Comunicação Online
Cifras.com.br - Melhor e mais completo site de cifras e tablaturas do Brasil
Mais de 1 milhão de acordes de músicas cadastradas desde 2003
As informações contidas no nosso site são colaborações de seus usuários e podem conter erros, sendo assim, não nos responsabilizamos sobre nenhuma destas.
close
menos
mais
close
Cor dos acordes:

Cor da letra:

 

save
close
close
 
redimensionar