Cifras e Tablaturas
Ancesttral

Ancesttral

You Should Be Dead

Cifras Cancelar Versão de Impressão
cifras

Ancesttral - You Should Be Dead

fixar na tela  
Exibindo: vídeo-aula ver clipes redimensionar
  
Intro (x3) 

C  --------------------------| 
G  --------------------------| 
D# --------------------------| 
A# ----------9---------------| 
F  ------7--------8---7------| 
C  --------------------------| 

then 

C  -------------------------------| 
G  -------------------------------| 
D# -------------------------------| 
A# -----9---------------3-----3---| 
F  --7------8---7\------3-----3---| 
C  ---------------------1--0--1---| 
pm                         . 

Riff A 

(x3) 

c  -----------------------------------| 
G  -----------------------------------| 
D# -----------------------------------| 
A# ------9----------------------------| 
F  ----------8--7---------------------| 
C  --0--------------------0--0--0--0--| 
pm   .                    .  .  .  . 


then 

c  ---------------------------------| 
G  ---------------------------------| 
D# ---------------------------------| 
A# ------9----------------3-----3---| 
F  -----------8---7\------3-----3---| 
C  --0--------------------1--0--1---| 
pm   .                       . 


Riff B 

c  ----------------------------------------| 
G  ----------------------------------------| 
D# ----------------------------------------| 
A# -----------5----------------------------| 
F  -2--3------3-----3--2-------------------| 
C  -0--1--0------0--1--0--0-0-0-0-0-0-0-0--| 
PM  .  .  .      .        . . . . . . . . 

c  ----------------------------------------------| 
G  ----------------------------------------------| 
D# ----------------------------------------------| 
A# ----------7-----------------------------------| 
F  -2--3-----5---------3--3--2-------------------| 
C  -0--1--0------0--0--1--1--0--0-0-0-0-0-0-0-0--| 
PM  .  .  .      .  .           . . . . . . . . 


Verse 

c  --------------------------------------------| 
G  --------------------------------------------| 
D# --------------------------------------------| 
A# -----------------------------------5--------| 
F  --3--2--------------3--2-----3-----3-----3--| 
C  --1--0--0-0-0-0-0-0-1--0--0--1--0-----0--1--| 
PM         . . . . . .       .     .     . 

Chorus 

C  ------------------------------------------| 
G  ------------------------------------------| 
D# ------------------------------------------| 
A# ---------------------------------5--------| 
F  --7\4--------------5\4-----5-----3-----5--| 
C  --5\2-2-2-2-2-2-2--3\2--0--3--0-----0--3--| 
PM       . . . . . .       .     .     . 

Chorus 

(x3) 

C  -----------------------------------| 
G  ------12---------------------------| 
D# ----------10--9~-------------------| 
A# -----------------------------------| 
F  -----------------------------------| 
C  --0--------------------0--0--0--0--| 
pm   .                    .  .  .  . 


then 

C  -------------------------------------| 
G  ------12-----------------------------| 
D# ----------10--9\---------------------| 
A# --------------------------------2\---| 
F  -----------------------3-----3--2\---| 
C  --0--------------------1--0--1--0\---| 
pm   .                       . 

************************************ 

Song structure 

Intro x3 
Riff A x2 
Riff B x2 
Verse x8 
Chorus x4 
Riff A x2 
Riff B x2 
Verse x4 
Chorus x4 
Riff A x2 
Riff B x2 
Verse x4 
Chorus x4 
Riff A x2 
Outro x2 

************************************ 

| \   Slide down 
| .   Staccato 
| PM  Palm mute 
| ~   Vibrato 

************************************ 
  

top 5 | ancesttral
top rock'n roll
Outras músicas do artista letras do(a) Ancesttral
Top cifras »Top artistas »
Petaxxon Comunicação Online
Cifras.com.br - Melhor e mais completo site de cifras e tablaturas do Brasil
Mais de 1 milhão de acordes de músicas cadastradas desde 2003
As informações contidas no nosso site são colaborações de seus usuários e podem conter erros, sendo assim, não nos responsabilizamos sobre nenhuma destas.
close
menos
mais
close
Cor dos acordes:

Cor da letra:

 

save
close
close
 
redimensionar