Cifras e Tablaturas
Andy Shauf

Andy Shauf

Martha Sways

Cifras Cancelar Versão de Impressão
cifras

Andy Shauf - Martha Sways

fixar na tela  
Exibindo: vídeo-aula ver clipes redimensionar
  
Intro 

e |--x------x------x------x----| 
G#|---0------0-----0------0----| 
E |----0------0------5------5--| 
B |--5------2------7------4----| x2 
F#|--5------2------7------0----| 
B |--5------2------7------0----| 



Verse 

e |--x------x------x------x----| 
G#|---0------0-----0------0----| 
E |----0------0------5------5--| 
B |--5------2------7------4----| 
F#|--5------2------7------0----| 
B |--5------2------7------0----| 

Martha sways 
Pretty just like you 
I held her close 
Like i held you 

Martha sways 
And i follow suit 
She fills my glass 
And i toss it back 


Pre-Chorus 

e |--x----| 
G#|---0---| 
E |----5--| 
B |--7----| 
F#|--7----| 
B |--7----| 

Into the space that once held you 


Chorus 

e |------x------x------x------x----| 
G#|-------0------0------0------0---| 
E |--------5------5------5------5--| 
B |------3------3------7------4----| 
F#|------3------3------7------0----| 
B |--0-2-3------3------7------0----| 

And dance dance to the radio 
While the devil takes control 
Dance dance to the radio 
While the devil takes control 


Verse 

e |--x------x------x------x----| 
G#|---0------0-----0------0----| 
E |----0------0------5------5--| 
B |--5------2------7------4----| 
F#|--5------2------7------0----| 
B |--5------2------7------0----| 

There's a weight 
Holding me down 
Martha says 
It's all in my head 

I look at the lights 
Dancing in her eyes 
And i wanna die 
Dancing in her eyes 


Chorus 

e |------x------x------x------x----| 
G#|-------0------0------0------0---| 
E |--------5------5------5------5--| 
B |------3------3------7------4----| 
F#|------3------3------7------0----| 
B |--0-2-3------3------7------0----| 

Dance dance to the radio 
While the devil takes control x4 


Verse 

e |--x------x------x------x----| 
G#|---0------0-----0------0----| 
E |----0------0------5------5--| 
B |--5------2------7------4----| 
F#|--5------2------7------0----| 
B |--5------2------7------0----| 

Martha spins 
And i catch her hand 
She smiles and laughs 
Bringing me back  
  

top 5 | andy shauf
top rock'n roll
Outras músicas do artista letras do(a) Andy Shauf
Top cifras »Top artistas »
Petaxxon Comunicação Online
Cifras.com.br - Melhor e mais completo site de cifras e tablaturas do Brasil
Mais de 1 milhão de acordes de músicas cadastradas desde 2003
As informações contidas no nosso site são colaborações de seus usuários e podem conter erros, sendo assim, não nos responsabilizamos sobre nenhuma destas.
close
menos
mais
close
Cor dos acordes:

Cor da letra:

 

save
close
close
 
redimensionar