Cifras e Tablaturas
Cifras Cancelar Versão de Impressão
cifras

Angels & Airwaves - Recover

fixar na tela  
Exibindo: vídeo-aula ver clipes redimensionar

Tom:

  
Verse 
e|----------------------------------------| 
B|-----3-------3--------------------------| 
B|-----2-------2--------------------------| 
D|-4---0---4---0--------------------------| (x6) 
A|-4-------4------------------------------| 
E|-2-------2------------------------------| 

e|----------------------------------------| 
B|---------------------3-------3----------| 
G|-----2---2---4-------2-------2----------| 
D|-4---2---2---4---4---0---4---0----------| (x2) 
A|-4---0---0---2---4-------4--------------| 
E|-2---------------2-------2--------------| 

Pre-Chorus 
e|---------------------------------| 
B|---------------------------------| 
G|-2-2-2-1-1-1-2-2-2-1-1-1-2-2-1-1-| 
G|-2-2-2-2-2-2-2-2-2-2-2-2-2-2-2-2-| (x2) 
A|-0-0-0-0-0-0-0-0-0-0-0-0-0-0-0-0-| 
E|---------------------------------| 

Chorus 
e|---------------------------------------------| 
B|---------------------------------------------| 
G|-7-7-6-6---9-9-6-(6)---7-7-6-6---7-7-6-------| 
D|-9-9-7-7----------7----9-9-7-7---7-7-7-------| (x2) 
A|---------------------------------0-0-0-------| 
E|---------------------------------------------| 

Bridge 
e|---------------------------------------------| 
B|-3-------------------------------------------| 
G|-2----4----2----(2)--------------------------| 
D|-0----4----2---------------------------------| 
A|------2----0---------------------------------| 
E|---------------------------------------------| 



************************************ 

| (n)  Ghost note 

************************************ 
  

top 5 | angels & airwaves
top rock'n roll
Outras músicas do artista letras do(a) Angels & Airwaves
Top cifras »Top artistas »
Petaxxon Comunicação Online
Cifras.com.br - Melhor e mais completo site de cifras e tablaturas do Brasil
Mais de 1 milhão de acordes de músicas cadastradas desde 2003
As informações contidas no nosso site são colaborações de seus usuários e podem conter erros, sendo assim, não nos responsabilizamos sobre nenhuma destas.
close
menos
mais
close
Cor dos acordes:

Cor da letra:

 

save
close
close
 
redimensionar