Cifras e Tablaturas
Anna Ratto

Anna Ratto

Nem Sequer Dormi

Cifras Cancelar Versão de Impressão
cifras

Anna Ratto - Nem Sequer Dormi

fixar na tela  
Exibindo: vídeo-aula ver clipes redimensionar
  
Intro:Dedilhado 

  Eb5/B       E9/F#       Eb5/B       E9/F# 
E|-----------------------------------------------------| 
B|------2-----------0-----------2-----------0----------| 
G|----3---3-------1---1-------3---3-------1------------| 
D|--1-------0---2-------0---1-------0---2--------------| 
A|2-----------------------2----------------------------| 
E|------------2-----------------------2----------------| 

Primeira parte 

  Eb5/B       E9/F#       Eb5/B       E9/F#       E           E9/F#       E 
E|--------------------------------------------------------------------------| 
B|------2-----------0-----------2-----------0-----------0-----------0-------| 
G|----3---3-------1---1-------3---3-------1---1-------1---1-------1---1-----| 
D|--1-------0---2-------0---1-------0---2-------2---2-------2---2-------2---| 
A|2-----------------------2-------------------------------------------------| 
E|------------2-----------------------2-----------0-----------2-----------0-| 

             E9/F#        
E|-----------------------| 
B|-----0-----------0-----| 
G|---1---1-------1---1---| 
D|-2-------2---2-------0-| 
A|-----------------------| 
E|-----------2-----------| 

Segunda parte 

  Eb5/B       E9/F#       Eb5/B       E9/F#       E           E9/F#       E 
E|--------------------------------------------------------------------------| 
B|------2-----------0-----------2-----------0-----------0-----------0-------| 
G|----3---3-------1---1-------3---3-------1---1-------1---1-------1---1-----| 
D|--1-------0---2-------0---1-------0---2-------2---2-------2---2-------2---| 
A|2-----------------------2-------------------------------------------------| 
E|------------2-----------------------2-----------0-----------2-----------0-| 

             E9/F#        
E|-----------------------| 
B|-----0-----------0-----| 
G|---1---1-------1---1---| 
D|-2-------2---2-------0-| 
A|-----------------------| 
E|-----------2-----------| 


Pré-refrão 

  Eb5/B     E9/B    
E|------------------2------| 
B|------2---------0---0----| 
G|----3---3-----2-------0--| 
D|--1-------0--------------| 
A|2-----------2------------| 
E|-------------------------| 

Refrão 

  E                   Eb5/B                      E              Eb5/B 
E|---------0----------------------------------------------------------------------------| 
B|-------0---0--------------2-----------2--------------------0--------2-----------2-----| 
G|----1--------1----------3---3-------3---3----------1--------------3---3-------3---3---| 
D|--2------------2------1-------1---1-------0------2---2----------1-------1---1-------0-| 
A|--------------------2-----------2-----------------------------2-----------2-----------| 
E|0----------------------------------------------0--------------------------------------| 
    
  E                       Bb4           G#m          G#4       F# 
E|-------------------------------6------------4----------------------0------------------| 
B|------0-----------0----------7---7--------4---4-------5---5------2--------------------| 
G|----1---1-------1---1-----8--------8----4-------4---6---6------3----------------------| 
D|--2-------2---2-------0---------------------------------------------------------------| 
A|2-----------2-----------6-------------------------4-----------------------------------| 
E|--------------------------------------4----------------------2------------------------|  
  

cifra enviadasem correções
enviado porenviada por:Italo-Oliveira
top 5 | anna ratto
top rock'n roll
Outras músicas do artista letras do(a) Anna Ratto
Top cifras »Top artistas »
Petaxxon Comunicação Online
Cifras.com.br - Melhor e mais completo site de cifras e tablaturas do Brasil
Mais de 1 milhão de acordes de músicas cadastradas desde 2003
As informações contidas no nosso site são colaborações de seus usuários e podem conter erros, sendo assim, não nos responsabilizamos sobre nenhuma destas.
close
menos
mais
close
Cor dos acordes:

Cor da letra:

 

save
close
close
 
redimensionar