Cifras e Tablaturas
Anna Ternheim

Anna Ternheim

To Be Gone

Cifras Cancelar Versão de Impressão
cifras

Anna Ternheim - To Be Gone

fixar na tela  
Exibindo: vídeo-aula ver clipes redimensionar
  
Gitarr 1:  
capo 2:a bandet. 
Gitarr 2: 7 
capo 7:e bandet. (+tremolo effekt) 

I refrängen plockar första gitarrren  
ackorden och andra gitarren spelar tabben. 


Verse 

 Gitarr 1: 
e|----------------------------0----------| 
B|----0----0----0------0--------0--------| 
G|---5----5----------2------2-----0------| 
D|-7----6----5-----3------2--------------| 
A|---------------------------------------| 
E|---------------------------------------| 


Refrain 

 Gitarr 2: 
e|-3-----2-----0-----------------------------------------| 
B|---0-----0-----0----3-----1-0--0-----1---0--1p0-----0--| 
G|-----0-----0-----0----0----------0--------------2p0----| 
D|------------------------0-2--------0---0---------------| 
A|-------------------------------------------------------| 
E|-------------------------------------------------------| 

 Am     G         C       Dm         G          C           Fmaj7 
 I just happen to feel so alone, for today, for all days to come. 

e|-3-----2-----0-----------------------------------------| 
B|---0-----0-----0----3-----1-0--0-----1---0--1p0--------| 
G|-----0-----0-----0----0----------0--------------2p0----| 
D|------------------------0-2--------0---0---------------| 
A|-------------------------------------------------------| 
E|-------------------------------------------------------| 

 Fmaj7  G         C        Dm          G        C      Fmaj7 
 I just wanna be, wanna be gone, I just wanna be, wanna be gone 


STICK 

 Gitarr 2: 
e|-----2---0---------0-------------------| 
B|----3----0------3--0-------------------| 
G|---2-----0-----0---0-------------------| 
D|--0------2----4----2-------------------| 
A|---------2---5-----2-------------------| 
E|---------0---------0-------------------| 
   Leave the city leave the cold... 


************************************ 

| p  Pull-off 

************************************ 
  

cifra enviadasem correções
enviado porenviada por:aleffederico
top 5 | anna ternheim
top rock alternativo
Outras músicas do artista letras do(a) Anna Ternheim
Top cifras »Top artistas »
Petaxxon Comunicação Online
Cifras.com.br - Melhor e mais completo site de cifras e tablaturas do Brasil
Mais de 1 milhão de acordes de músicas cadastradas desde 2003
As informações contidas no nosso site são colaborações de seus usuários e podem conter erros, sendo assim, não nos responsabilizamos sobre nenhuma destas.
close
menos
mais
close
Cor dos acordes:

Cor da letra:

 

save
close
close
 
redimensionar