Cifras e Tablaturas
Another Race
Cifras Cancelar Versão de Impressão Print

Another Race - 6.9

Tom:

  • 0:00 / 0:00
  			6.9 - Biscuit (now known as AnotherRace)  
**Best Viewed in Notepad maximised with word wrap on. 
 
Transcription by Heavy Metal Jim ([email protected]) 
This is my interperetation of the song 6.9 by AnotherRace,  
I worked it out by ear and Have seen them live so the transcription 
should be 99.9% accurate. The Rhythm is roughly worked out but listen 
to the bands 'A Manga Movement' (Biscuit) to get the timing  
and form right. 
 
Drop-D Tuning.  Low to high :(DADGBE) 
 
Intro 
 
E-------------------------------------------------------------- 
B-------------------------------------------------------------- 
G-------------------------------------------------------------- 
D---------------------------------------------------10h11------ 
A------13-12-11-12---------12-12------13-12-11-12---------10h11 
D-0-00-------------0-0-0-0-------0-00------------000----------- 
 
 
E-------------------------------- 
B-------------------------------- 
G-------------------------------- 
D-------------------------------- 
A------13-12-11-12---------12-12- 
D-0-00-------------0-0-0-0------- 
 
E--------------------------------------------------------- 
B--------------------------------------------------------- 
G--------------------------------------------------------- 
D-----------------------------------------10h11----------- 
A-----13-12-11-12-13-12-11-12-13-12-11-12--------10h11---- 
D0-00----------------------------------------------------- 
 
E--------------------------------------------------------------- 
B--------------------------------------------------------------- 
G--------------------------------------------------------------- 
D---------------------------------------------------10h11------- 
A------13-12-11-12---------12-12------13-12-11-12---------10h11- 
D-0-00-------------0-0-0-0-------0-00------------000------------ 
 
E----------------------------------------------------------- 
B----------------------------------------------------------- 
G----------------------------------------------------------- 
D----------------------------------------------------------- 
A------13-12-11-12---------12-12----11h12p11h12p11h12------- 
D-0-00-------------0-0-0-0---------------------------------- 
 
Verse  
 
E----------------------------------------- 
B----------------------------------------- 
G----------------------------------------- 
D----------------------------------------- 
A-0-0-0-0-0-3-0-0-0-0-0-3-0-0-0-0-0-3----- 
D-0-0-0-0-0-3-0-0-0-0-0-3-0-0-0-0-0-3----- etc. (could be chords) 
 
Chorus   (take a look at the world...) 
play intro riff agian. 
Then play chorus riff B: 
 
E----------------------------------------- 
B----------------------------------------- 
G------------------------------5---------- 
D----------5------------------------------ 
A--3-5-3-4---3-5-3-4---3-5-3-4---3-5-3-4-- 
D--------------------3-------------------- 
 
E------------------------------------------------ 
B------------------------------------------------ 
G------------------------------------------------ 
D------------------------------------------------ 
A--3-5-3-4-3-|-3-5-3-4-3|--3-5-3-4-3|--3-5-3-4-3| 
D------------------------------------------------ 
 
 
*Note: sounds as if played as chords on low d string, seen  
it live heaps, and is as transcription. But of course, it sounds  
way better as chords with overdrive on full. 
 
Bridge,  
Bass: 
G-----------------------------| 
D-----------------------------| 
A-----------------------------| 
D--00-08--00-08--00-08-00-08-3| 
 
Guitar: Slide up to 12 fret then back down before..... 
E--------------------------- 
B--------------------------- 
G--------------------------- 
D--------------------------- 
A--------------------------- 
D--00-08-00-08--00-08-00-8-3 
 
E--------------------------- 
B--------------------------- 
G--------------------------- 
D------8-----8------8----8-3 
A------8-----8------8----8-3 
D--00-08-00-08--00-08-00-8-3 
 
then guitar plays this  
E------------------------------- 
B------------------------------- 
G------------------------------- 
D--777777--555--777777--101010-- 
A--555555--333--555555--8 8 8 -- 
D------------------------------- 
with wah wah and overdrive while bass holds rhythm. 
----- 
FORM: 
----- 
The Form of the song and corresponding riffs. 
 
Intro                Intro 
Verse 1              Verse 
Chorus               Intro, Chorus Riff B (4 times) 
fill                 Intro 
Verse 2              Verse 
Chorus               Chorus Riff B (8 Times) 
Bridge               Bridge 
Chorus               Chorus Riff B 
 
 

    	

enviado porenviado por: anônimo
cifra enviadaCorrigida por: sem correções
logo top cifrasComente
ico música do artistaMúsicas deste artista
ico curtiuCurtiu?
ico destaqueDestaque
Petaxxon Comunicação Online

Cifras.com.br - Melhor e mais completo site de cifras e tablaturas do Brasil Mais de 1 milhão de acordes de músicas cadastradas desde 2003
As informações contidas no nosso site são colaborações de seus usuários e podem conter erros, sendo assim, não nos responsabilizamos sobre nenhuma destas.

close
menos
mais
close
Cor dos acordes:

Cor da letra:

close
Alinhar acordes a direita Alinhar acordes a esquerda Alinhar acordes em baixo Alinhar acordes no topo
close
  Mostrar todos os acordes Esconder acordes muito fáceis Esconder acordes fáceis Esconder acordes intermediários
redimensionar
glossário