Cifras e Tablaturas
Anton Koch

Anton Koch

Never Give Up

Cifras Cancelar Versão de Impressão

Anton Koch - Never Give Up

Tom: C

  			Intro/Verse/Chorus:                             x2 
 Cadd9        G   G/F  Em7            Am    
e|-----------|---------|-------------|---------|      
B|-3-------3-|-3---3---|-3---3-------|-1---3---| 
G|---0---0---|---0---0-|---0-------0-|---2---2-|     
D|-----------|---------|---------2---|---------| 
A|-3-x-3---x-|---------|-------------|-0-x-0-x-| 
E|-----------|-3-x-1-x-|-0-x---0---x-|---------| 

Verse:                                          x4 
 Cadd9        G  G/F   Em7            Am    
e|-----------|---------|-------------|---------|      
B|-3-------3-|-3---3---|-3---3-------|-1---3---| 
G|---0---0---|---0---0-|---0-------0-|---2---2-|     
D|-----------|---------|---------2---|---------| 
A|-3-x-3---x-|---------|-------------|-0-x-0-x-| 
E|-----------|-3-x-1-x-|-0-x---0---x-|---------| 

Pre-Chorus  
(Bm x2)      (Em7 x2)       G   Am  (C x2) 
e|------------|------------|---------|-----------| 
B|-3-------3--|-0----------|-3---1---|-1-------1-| 
G|---4---4----|---0-----0--|---0---2-|---0---0---| 
D|------------|-------0----|---------|-----------| 
A|-2-x-2---x--|------------|-----0-x-|-3-x-3---x-| 
E|------------|-0-x-0---x--|-3-x-----|-----------| 

Chorus:                                       *4 
 Cadd9        G  G/F   Em7            Am    
e|-----------|---------|-------------|---------|      
B|-3-------3-|-3---3---|-3---3-------|-1---3---| 
G|---0---0---|---0---0-|---0-------0-|---2---2-|     
D|-----------|---------|---------2---|---------| 
A|-3-x-3---x-|---------|-------------|-0-x-0-x-| 
E|-----------|-3-x-1-x-|-0-x---0---x-|---------| 

Verse:                                        x4 
 Cadd9        G  G/F   Em7            Am    
e|-----------|---------|-------------|---------|      
B|-3-------3-|-3---3---|-3---3-------|-1---3---| 
G|---0---0---|---0---0-|---0-------0-|---2---2-|     
D|-----------|---------|---------2---|---------| 
A|-3-x-3---x-|---------|-------------|-0-x-0-x-| 
E|-----------|-3-x-1-x-|-0-x---0---x-|---------| 

Pre-Chorus 
(Bm x2)      (Em7 x2)       G   Am  (C x2) 
e|------------|------------|---------|-----------| 
B|-3-------3--|-0----------|-3---1---|-1-------1-| 
G|---4---4----|---0-----0--|---0---2-|---0---0---| 
D|------------|-------0----|---------|-----------| 
A|-2-x-2---x--|------------|-----0-x-|-3-x-3---x-| 
E|------------|-0-x-0---x--|-3-x-----|-----------| 

Chorus:                                       x4 
 Cadd9        G  G/F   Em7            Am    
e|-----------|---------|-------------|---------|      
B|-3-------3-|-3---3---|-3---3-------|-1---3---| 
G|---0---0---|---0---0-|---0-------0-|---2---2-|     
D|-----------|---------|---------2---|---------| 
A|-3-x-3---x-|---------|-------------|-0-x-0-x-| 
E|-----------|-3-x-1-x-|-0-x---0---x-|---------| 

Bridge: 
(Dm x2)     |C x2)      (F x2)      (G x2) 
e|-----------|-----------|-----------|-3---------| 
B|-6-------6-|-1-------1-|-1---------|-3---------| 
G|---7---7---|---0---0---|---2-----2-|-4---------| 
D|-----------|-----------|-------3---|-5---------| 
A|-5-x-5---x-|-3-x-3---x-|-----------|-5---------| 
E|-----------|-----------|-1-x-1---x-|-3---------| 

Verse: 
 Cadd9        G  G/F   Em7            Am    
e|-----------|---------|-------------|---------|      
B|-3-------3-|-3---3---|-3---3-------|-1---3---| 
G|---0---0---|---0---0-|---0-------0-|---2---2-|     
D|-----------|---------|---------2---|---------| 
A|-3---3-----|---------|-------------|-0---0---| 
E|-----------|-3---1---|-0-----0-----|---------| 
Outro: 
 Cadd9        G  G/F   Em7            Am    
e|-----------|---------|-------------|---------|      
B|-3-------3-|-3---3---|-3---3-------|-1---3---| 
G|---0---0---|---0---0-|---0-------0-|---2---2-|     
D|-----------|---------|---------2---|---------| 
A|-3-x-3---x-|---------|-------------|-0-x-0-x-| 
E|-----------|-3-x-1-x-|-0-x---0---x-|---------| 
    	
fixar
fixar inscrever-se

enviado porenviado por: andrsouza
cifra enviadaCorrigida por: sem correções
logo top cifrasComente
ico música do artistaMúsicas deste artista
ico curtiuCurtiu?
ico destaqueDestaque
Petaxxon Comunicação Online

Cifras.com.br - Melhor e mais completo site de cifras e tablaturas do Brasil Mais de 1 milhão de acordes de músicas cadastradas desde 2003
As informações contidas no nosso site são colaborações de seus usuários e podem conter erros, sendo assim, não nos responsabilizamos sobre nenhuma destas.

close
menos
mais
close
Cor dos acordes:

Cor da letra:

close
Alinhar acordes a direita Alinhar acordes a esquerda Alinhar acordes em baixo Alinhar acordes no topo
close
  Mostrar todos os acordes Esconder acordes muito fáceis Esconder acordes fáceis Esconder acordes intermediários
redimensionar
glossário