Cifras e Tablaturas
Antonio Vivaldi

Antonio Vivaldi

Linverno Winter 2nd Movement

Cifras Cancelar Versão de Impressão
cifras

Antonio Vivaldi - Linverno Winter 2nd Movement

fixar na tela  
Exibindo: vídeo-aula ver clipes redimensionar

Tom:

   
Capo 3 



e|-----6-4-3-------|-----------------|-4-3---------4---|-6p4h6p4---3-------3---|-----3-4-6---8/10-10-| 
B|-4-----------6-4-|-6---------------|-----6-4-3-------|-----------------------|-6-------------------| 
G|-----3-------3---|-----3-------3---|-----3-------3---|-----------3-------3---|-----3-------3-------| 
D|---5---5---5---5-|-----3-------3---|-------3---3---3-|---------5---5---5---5-|---3---3---3------3--| 
A|-6-------6-------|---5---5---5---5-|---5-------------|-6-------------6-------|-5-------5-----------| 
E|-----------------|-6-------6-------|-6-------6-------|-----------------------|---------------------| 

                                         0:30                                         
e|-------3-4---6/8-8-|---------3---4-6-|-------------3---|-----------------|-----------------| 
B|-4---6-----4-3-----|-3---4-6---6-4-3-|-----3-4-6-------|-3---------------|-6---------------| 
G|-----5-----------8-|-----3-----------|-5---------5-3-8-|-----------3---3-|-----------3---3-| 
D|---5---5-----------|---3---3---------|-----3---------8-|-----3-------7---|-----3-------7---| 
A|-3-------3---------|-----------------|---3---3---------|---5---5---5-8-5-|---5---5---------| 
E|-------------------|-6-------6-------|-4-------5-------|-6-------6-------|-6-------6-------| 
                                    
e|-----------------|-5---------------|-6-----------6---|---6-5-3-----------| 
B|-8---------------|-----------6-4-6-|-----------------|---------6-4-3-----| 
G|-----3-----3---3-|-----------------|-----3-----------|--5------------5-3-| 
D|---5---5-----7---|---3-7-3---------|-----3-------3---|-3---------3-------| 
A|-6-------6-------|-6-------6-------|---5---5---5---5-|-------------------| 
E|-----------------|-----------------|-6-------6-------|-------------------| 

                1:00  
e|-----------------------------------------------------------|-------------------|-----------------| 
B|---3-----3---3---3---3---3---3---3---3---3---3---3---3-----|-------------------|-----6-4-3-------| 
G|-----5-----5-------5-------5-------5-------5-------5---5-3-|---3---------------|-3-----------5-3-| 
D|---------------3-------------------------------3-----------|-------3-------3---|-----3-------3---| 
A|-------3---------------3---------------3-------------------|-----5---5---5---5-|---5---5---5---5-| 
E|-5-----------------------------5---------------------------|-6---------6-------|-6-------6-------| 

                                                                                             1:30 
e|-----------------|-----------------|-----------------------|-4-3---------4---|-6p4h6p4---3-------3---| 
B|-----------------|-4-3---------4---|-6p4h6p4---3-----------|-----6-4-3-------|-----------------------| 
G|-5---------------|-----5-3---------|-------------------3---|-----------------|-----------3-------3---| 
D|-----3-------3---|-----3---7---3---|-----------3-------3---|-----3-------3---|---------5---5---5---5-| 
A|---3---3---3---3-|---3---3---3---3-|---------5---5---5---5-|---5---5---5---5-|-6-------------6-------| 
E|-5-------5-------|-5-------5-------|-6-------------6-------|-6-------6-------|-----------------------| 

e|-------------3-4-|---------3---4-6-|-------3-4---6/8-8-|-----------------|---------3-4-6-3-| 
B|-----3-4-6-------|-3---3-6---------|-4---6-----4-------|-3-----------3-4-|-6-3-------------| 
G|-5-----------5---|-----------3---3-|-----5-------3---8-|-----3-------3---|-----5-3---------| 
D|-----6-----3---3-|-----3-----------|---5---5-----------|---3---3---3---3-|-----3-------5-6-| 
A|---6---6---------|---5---5-----5---|-6-------3---------|-----------------|---5---5-6-------| 
E|-4-------4-------|-6-------6-------|-------------------|-6-------6-------|-6---------------| 

                           2:00    
e|-----------------|---------3-4-6-3-|---------------6-|-3---------------------------------------| 
B|-6-----------3-4-|-6-3-------------|-6-----------6---|-----6-4---4---4---4---4---4---4-------4-| 
G|-----3-------3---|-----5-3---------|-----3-------3---|-----3-------7-------7-------7---7---7---| 
D|-----3-----3---3-|-----3-------5---|-----3-----3---3-|---5---5-----------------3---------------| 
A|---5---5---------|---5---5-6-----6-|---5---5---------|-6---------------5-----------------5-----| 
E|-6-------6-------|-6---------------|-6-------6-------|---------6-------------------------------| 

                 x2                                x4 
e|---------------------------------|---------------------------------|-------|---| 
B|---6---6---6---6---6---6---6---6-|---6---6---6---6---6---6---6---6-|-----6-|-4-| 
G|-----8-------8---3---8-------8---|-----8-------8-------8-------8---|----3--|---| 
D|---------5---------------5-------|---------------------------------|---5---|---| 
A|-6-------------------------------|-----------------6---------------|--6----|---| 
E|---------------------------------|-3-------6---------------6-------|-3-----|---| 

************************************ 

| /   Slide up 
| h   hammer-on 
| p   pull-off 

************************************ 
  

top 5 | antonio vivaldi
top música clássica
Outras músicas do artista letras do(a) Antonio Vivaldi
Top cifras »Top artistas »
Petaxxon Comunicação Online
Cifras.com.br - Melhor e mais completo site de cifras e tablaturas do Brasil
Mais de 1 milhão de acordes de músicas cadastradas desde 2003
As informações contidas no nosso site são colaborações de seus usuários e podem conter erros, sendo assim, não nos responsabilizamos sobre nenhuma destas.
close
menos
mais
close
Cor dos acordes:

Cor da letra:

 

save
close
close
 
redimensionar