Cifras e Tablaturas
Arcane Roots

Arcane Roots

If Nothing Breaks Nothing Moves

Cifras Cancelar Versão de Impressão
cifras

Arcane Roots - If Nothing Breaks Nothing Moves

fixar na tela  
Exibindo: vídeo-aula ver clipes redimensionar

Tom:

  
Intro   

"Give me the song and..." (Singing starts on the third measure) 
e|--------------------------| 
B|--9------4------7------2--| 
G|--9------4------8------3--| x6 
D|--11-----6------9------4--| 
A|--11-----6------9------4--| 
E|--9------4------7------2--| 

"...inside of my heart..." 
e|--x-x-x-x--x-x-x-x--x-x-x-x---x--x--x--x----x-x-x-x--x-x-x-x--x-x-x-x---x--x--x--x------------| 
B|--x-x-x-x--x-x-x-x--x-x-x-x---x--x--x--x----x-x-x-x--x-x-x-x--x-x-x-x---x--x--x--x------------| 
G|--9-9-9-9--9-9-9-9--9-9-9-9---13-13-13-13---6-6-6-6--6-6-6-6--6-6-6-6---14-14-14-14-----------|  
D|--x-x-x-x--x-x-x-x--x-x-x-x---x--x--x--x----x-x-x-x--x-x-x-x--x-x-x-x---x--x--x--x------------| 
A|--7-7-7-7--7-7-7-7--7-7-7-7---11-11-11-11---4-4-4-4--4-4-4-4--4-4-4-4---12-12-12-12-----------| 
E|--9-9-9-9--9-9-9-9--9-9-9-9---12-12-12-12---5-5-5-5--5-5-5-5--5-5-5-5---14-14-14-14-----------| 

e|--x-x-x-x--x-x-x-x--x-x-x-x---x--x--x--x----x-x-x-x--x-x-x-x--x-x-x-x---x--x--x--x------------| 
B|--x-x-x-x--x-x-x-x--x-x-x-x---x--x--x--x----x-x-x-x--x-x-x-x--x-x-x-x---x--x--x--x------------| 
G|--9-9-9-9--9-9-9-9--9-9-9-9---13-13-13-13---6-6-6-6--6-6-6-6--6-6-6-6---11-11-11-11-----------|  
D|--x-x-x-x--x-x-x-x--x-x-x-x---x--x--x--x----x-x-x-x--x-x-x-x--x-x-x-x---x--x--x--x------------| 
A|--7-7-7-7--7-7-7-7--7-7-7-7---11-11-11-11---4-4-4-4--4-4-4-4--4-4-4-4---9--9--9--9------------| 
E|--9-9-9-9--9-9-9-9--9-9-9-9---12-12-12-12---5-5-5-5--5-5-5-5--5-5-5-5---x--x--x--x------------| 



Verse 

"So I'm standing in front of you..." 
e|------------------x------| 
B|--9---------------9---7--| 
G|--9---------------9---8--| 
D|--11--------------11--7--| 
A|--11------9----9--12--9--| 
E|--9--9h11---11----x---7--| 
 (Each chord here is strummed a few times, listen to the song for timing) 

"...barely remember the words..." 
e|-----------------------------------------------------------------------------------------------------------| 
B|-----------------------------------------------------------------------------------------------------------| 
G|-----------------8b(9)----------------8b(9)--------------------------------8b(9)----------------8b(9)------| 
D|-----------------------------------------------------------------------------------------------------------| 
A|-----------------------------------------------------------------------------------------------------------| 
E|--9-9-9-9--9-9-9-------9-9-9-9--9-9-9-------9-9-9-9--9-9-9--9-9-9-9--9-9-9-------9-9-9-9--9-9-9-------X-1-0| 
(These parts are played with an octave pedal) 
e|-----------------------------------------------------------------------------------------------------------| 
B|-----------------------------------------------------------------------------------------------------------| 
G|-----------------8b(9)----------------8b(9)--------------------------------8b(9)----------------8b(9)------| 
D|-----------------------------------------------------------------------------------------------------------| 
A|-----------------------------------------------------------------------------------------------------------| 
E|--9-9-9-9--9-9-9-------9-9-9-9--9-9-9-------9-9-9-9--9-9-9--9-9-9-9--9-9-9-------9-9-9-9--9-9-9-------X-1--| 

"So give me a moment..." 
e|-----------------|     e|------------------------| 
B|-----9--9-9--9---|     B|-----9----9--9--9--9----| 
G|-----------------| x3  G|----------9--9--9--9----| x1 
D|---11-11---11----|     D|---11-11--11-11-11-11---| 
A|-----------------|     A|----------12-12-12-12---| 
E|-----------------|     E|------------------------| 

e|------------------|    e|------------------------| 
B|-----9--12-9--9---|    B|-----9----9--9--9--9----| 
G|------------------| x3 G|----------9--9--9--9----| x1 
D|---11-11----11----|    D|---11-11--11-11-11-11---| 
A|------------------|    A|----------12-12-12-12---| 
E|------------------|    E|------------------------| 



Chorus 

"So give me the song..." 
e|--------------------------| 
B|--9------4------7------2--| 
G|--9------4------8------3--| x4 
D|--11-----6------9------4--| 
A|--11-----6------9------4--| 
E|--9------4------7------2--| 
(Listen to the song for timing) 

"...inside of my heart..." 
e|--x-x-x-x--x-x-x-x--x-x-x-x---x--x--x--x----x-x-x-x--x-x-x-x--x-x-x-x---x--x--x--x------------| 
B|--x-x-x-x--x-x-x-x--x-x-x-x---x--x--x--x----x-x-x-x--x-x-x-x--x-x-x-x---x--x--x--x------------| 
G|--9-9-9-9--9-9-9-9--9-9-9-9---13-13-13-13---6-6-6-6--6-6-6-6--6-6-6-6---14-14-14-14-----------|  
D|--x-x-x-x--x-x-x-x--x-x-x-x---x--x--x--x----x-x-x-x--x-x-x-x--x-x-x-x---x--x--x--x------------| 
A|--7-7-7-7--7-7-7-7--7-7-7-7---11-11-11-11---4-4-4-4--4-4-4-4--4-4-4-4---12-12-12-12-----------| 
E|--9-9-9-9--9-9-9-9--9-9-9-9---12-12-12-12---5-5-5-5--5-5-5-5--5-5-5-5---14-14-14-14-----------| 

e|--x-x-x-x--x-x-x-x--x-x-x-x---x--x--x--x----x-x-x-x--x-x-x-x--x-x-x-x---x--x--x--x------------| 
B|--x-x-x-x--x-x-x-x--x-x-x-x---x--x--x--x----x-x-x-x--x-x-x-x--x-x-x-x---x--x--x--x------------| 
G|--9-9-9-9--9-9-9-9--9-9-9-9---13-13-13-13---6-6-6-6--6-6-6-6--6-6-6-6---11-11-11-11-----------|  
D|--x-x-x-x--x-x-x-x--x-x-x-x---x--x--x--x----x-x-x-x--x-x-x-x--x-x-x-x---x--x--x--x------------| 
A|--7-7-7-7--7-7-7-7--7-7-7-7---11-11-11-11---4-4-4-4--4-4-4-4--4-4-4-4---9--9--9--9------------| 
E|--9-9-9-9--9-9-9-9--9-9-9-9---12-12-12-12---5-5-5-5--5-5-5-5--5-5-5-5---x--x--x--x------------| 



Bridge 

"Tied up to a steak..." 
e|-----------------------------------------------------------------------------------------------------------| 
B|-----------------------------------------------------------------------------------------------------------| 
G|----------------8b(9)----------------8b(9)--------------------------------8b(9)----------------8b(9)-------| 
D|-----------------------------------------------------------------------------------------------------------| 
A|-----------------------------------------------------------------------------------------------------------| 
E|-9-9-9-9--9-9-9-------9-9-9-9--9-9-9-------9-9-9-9--9-9-9--9-9-9-9--9-9-9-------9-9-9-9--9-9-9-------X-1-0-| 
(These parts are played with an octave pedal) 
e|-----------------------------------------------------------------------------------------------------------| 
B|-----------------------------------------------------------------------------------------------------------| 
G|-----------------8b(9)----------------8b(9)--------------------------------8b(9)----------------8b(9)------| 
D|-----------------------------------------------------------------------------------------------------------| 
A|-----------------------------------------------------------------------------------------------------------| 
E|--9-9-9-9--9-9-9-------9-9-9-9--9-9-9-------9-9-9-9--9-9-9--9-9-9-9--9-9-9-------9-9-9-9--9-9-9-------X-1--| 

e|-----------------------------------------------------------------------------| 
B|-----------------------------------------------------------------------------| 
G|-----------------------------------------------------------------------------| 
D|-----------------------------------------------------------------------------| 
A|-----------------------------------------------------------------------------| 
E|---9-9-9-9--9-9--9-9-9-9--9-9--9-9-9-9--9-9-9-9-9--9-9--9-9-9-9--9-9---1-0---| 

e|--------------------------------------------------------------------------------------| 
B|--------------------------------------------------------------------------------------| 
G|------------------------------------------------------------------------5-5-5-6-6-6---| x2 
D|--------------------------------------------------------------------------------------| 
A|--------------------------------------------------------------------------------------| 
E|---9-9-9-0--12--11--9-9-9-0--12--11----9-9-9-0--12--11--8-8-8-0--12--11---------------| 



Verse 

"So I'm standing in front of you..." 
e|-----------------------------|    e|-----------------------------| 
B|-----------------------------|    B|-----------------------------| 
G|------13----13----13----13---| x5 G|------13----13----14----14---| 
D|---11----11----11----11------|    D|---11----11----11----11------| 
A|-----------------------------|    A|-----------------------------| 
E|-----------------------------|    E|-----------------------------|                    


e|----------------------------------------| 
B|----------------------------------------| 
G|------9----13-9----9----8---------------| 
D|---11---11------11---10---10-10-10-10---| 
A|----------------------------------------| 
E|--------------------------8--8--8--8----|                                            

 "How many years will it..." (The pattern is 12-4-9-7 totaling 32 counts of music)  
e|-----------------------------------------------------------------------------------------------------| 
B|-----------------------------------------------------------------------------------------------------| 
G|-----------------------------------------------------------------------------------------------------| 
D|---11-11-11-11-11-11-11-11-11-11-11-11-13-13-13-13-14-14-14-14-14-14-14-14-14-13-13-13-13-13-13-13---| 
A|-----------------------------------------------------------------------------------------------------| 
E|---9--9--9--9--9--9--9--9--9--9--9--9--11-11-11-11-12-12-12-12-12-12-12-12-12-11-11-11-11-11-11-11---| 

e|--------------------------------------------------------------------------------| 
B|--------------------------------------------------------------------------------| 
G|--------------------------------------------------------------------------------| 
D|---11-11-11-11-11-11-11-11-11-11-11-11-11-11-11-11-14-14-14-14-14-14-14-14-10---| 
A|--------------------------------------------------------------------------------| 
E|---9--9--9--9--9--9--9--9--9--9--9--9--9--9--9--9--12-12-12-12-12-12-12-12-8----| 



Chorus 

"So give me the song..." (This Chorus differs a bit chord wise) 
e|---------------| 
B|---------------| 
G|---6---9---5---| x6 
D|---x---x---x---| 
A|---4---7---3---| 
E|---5---9---4---| 
 (Listen to the song for strumming pattern) 


Outro 

"...nothing inside of my heart..." 
e|------------------------------------------------------------------------------| 
B|------------------------------------------------------------------------------| 
G|-------------9--7--10-------------------------9--7--10------------------------| 
D|------------------------------------------------------------------------------| 
A|-------------7--5--8--------------------------7--5--8-------------------------| 
E|---9-9--9-9-----------9--9--9--9--9--9-9-9-9-----------9--9--9-9--9-9--9--9---| 

e|------------------------------------------------------------------| 
B|------------------------------------------------------------------| 
G|------------------------------------------------------------------| 
D|------------------------------------------------------------------| 
A|------------------------------------------------------------------| 
E|---9-9--9-9--0-10-13-0-10-13--9-9--9-9--9--0-10-13-0-10-13-0-10---| 

e|----------------------------------------------------------| 
B|----------------------------------------------------------| 
G|----------------------------------------------------------| 
D|----------------------------------------------------------| 
A|----------------------------------------------------------| 
E|---9-9--0-10-13-0-10-13--9-9--9-9--0-10-13-0-10-13-0-10---| 

e|---------------------| 
B|---------------------| 
G|---10--8---11---14---| 
D|---x---x---x----x----| 
A|---8---6---9----12---| 
E|---9---7---10---13---| 
 (Listen to the song for strumming pattern) 

"...around my throat..." 
e|-----------------------------------------------------------------------------------------------| 
B|-----------------------------------------------------------------------------------------------| 
G|-----------------------------------------------------------------------------------------------| x2 
D|-----------------------------------------------------------------------------------------------| 
A|-----------------------------------------------------------------------------------------------| 
E|---9--0-10-13-0-10-13--9--0-10-13-0-10-13-0-10--9\1--0-10-13-0-10-13--9\1--9-9-9-9--10-10-10-10| 

************************************ 
| x   Dead note 
| h   Hammer-on 
| b   Bend 
| \   Slide down 
************************************ 
  

top 5 | arcane roots
top rock'n roll
Outras músicas do artista letras do(a) Arcane Roots
Top cifras »Top artistas »
Petaxxon Comunicação Online
Cifras.com.br - Melhor e mais completo site de cifras e tablaturas do Brasil
Mais de 1 milhão de acordes de músicas cadastradas desde 2003
As informações contidas no nosso site são colaborações de seus usuários e podem conter erros, sendo assim, não nos responsabilizamos sobre nenhuma destas.
close
menos
mais
close
Cor dos acordes:

Cor da letra:

 

save
close
close
 
redimensionar