Cifras e Tablaturas
Arctic Monkeys

Arctic Monkeys

Do I Wanna Know? Tablatura Verificada

Compositor : (Alex Turner)

Cifras Cancelar Versão de Impressão
cifras

Arctic Monkeys - Do I Wanna Know?

fixar na tela  
Exibindo: vídeo-aula ver clipes redimensionar

Tom:

  
Intro and Verse: 


Riff 1: 

e|-------------------------------------------------------| 
B|-------------------------------------------------------| 
G|-------------------------------------------------------| 
D|------------------1h3-1--------------0-----------------| 
A|-----1----------1--------3/5-3---1h3---3---1h3/5-3h5---| 
E|-1h3---3---1h3---------------------------------------3-| 

Riff 1 A: 

e|----------------------------------------------| 
B|----------------------------------------------| 
G|----------------------------------------------| 
D|------------------1h3-1--------------0--------| 
A|-----1----------1--------3/5-3---1h3---3/5---5| 
E|-1h3---3---1h3--------------------------------| 

Pré-Refrão: 


e|------------------------------------------------| 
B|------------------------------------------------| 
G|------------------------------------------------| 
D|--------------------------------0---------------| 
A|-10\6--6-3-5-6-5-3---1-3---1-3--------------1---| 
E|----------------------------------3-----1h3---3-| 

e|-----------------------------------| 
B|-----------------------------------| 
G|-----------------------------------| 
D|-----------------------------------| 
A|-10\6-6--3-5-6-5-3---1-3-----------| 
E|----------------------------3----3-| (2x) 

e|-------------------------------------------------| 
B|-------------------------------------------------| 
G|-------------------------------------------------| 
D|--------------------------------0----------------| 
A|-10\6-6---3-5-6-5-3---1-3---1-3-------------1----| 
E|----------------------------------3-----1h3---1--| 


Riff 1 B: 

e|------------------------------------------------------------| 
B|------------------------------------------------------------| 
G|------------------------------------------------------------| 
D|-----------------------1h3-1--------------0-----------------| 
A|----------1----------1--------3/5-3---1h3---3---1h3/5-3h5---| 
E|-3----1h3---3---1h3---------------------------------------3-| 

Final da música: 

e|----------------------------|-------------------|-------------------| 
B|----------------------------|-------------------|-------------------| 
G|----------------------------|-------------------|-------------------| 
D|----------------------------|----------0---(2x)-|--------0----------| 
A|-10\6-6---3-5-6-5-3---1-3---|------1-3----------|----1-3------------| 
E|----------------------------|-3----------3------|-3--------3--3--3--| 

e|-------------------------| 
B|-------------------------| 
G|-12/14-12/14-15/17-14/15-| 
D|-------------------------| 
A|-------------------------| 
E|-------------------------| 


  

top 5 | arctic monkeys
top rock alternativo
Outras músicas do artista letras do(a) Arctic Monkeys
Top cifras »Top artistas »
Petaxxon Comunicação Online
Cifras.com.br - Melhor e mais completo site de cifras e tablaturas do Brasil
Mais de 1 milhão de acordes de músicas cadastradas desde 2003
As informações contidas no nosso site são colaborações de seus usuários e podem conter erros, sendo assim, não nos responsabilizamos sobre nenhuma destas.
close
menos
mais
close
Cor dos acordes:

Cor da letra:

 

save
close
close
 
redimensionar