Cifras e Tablaturas
Arctic Monkeys

Arctic Monkeys

Only You Know (live)

Cifras Cancelar Versão de Impressão
cifras

Arctic Monkeys - Only You Know (live)

fixar na tela  
Exibindo: vídeo-aula ver clipes redimensionar
  
Intro 
E|-------------------------------------------| 
B|-------------------------------------------| 
G|-------------------------------------------| 
D|--5-----5--7\9--7\9--7-----7--7/9--7/9--7--|  Repeat x2 
A|-------------------------------------------| 
E|-------------------------------------------| 

E|-----------------------------------------------| 
B|-----------------------------------------------| 
G|-----------------------------------------------| 
D|--5--4-----5--4--2--4-----5--4-----5--4--2-----| 
A|--------------------------------------------5--| 
E|-----------------------------------------------| 

Verse 
E|-------------------------------------------------------------------------| 
B|-------------------------------------------------------------------------| 
G|-----7-----7--9--11-----11--10--9-----9/11--10--9-----9/11--9/11--10--9--|  Repeat x2 
D|-------------------------------------------------------------------------| 
A|-------------------------------------------------------------------------| 
E|-------------------------------------------------------------------------| 

     D        F#                    G     D 
And I know how much I'm missin' heaven, you know that it's missin' 

Chorus 
D            Em                       D             Em         
Only you know where you have been to, only you know what you have been through, 
    D                          Em                Em 
But there's better things you're gonna get into, and I wanna be there too.... 

Bridge 
E|-------------------------------------------| 
B|-------------------------------------------| 
G|-------------------------------------------| 
D|--5-----5--7\9--7\9--7-----7--7/9--7/9--7--|  Repeat x2 
A|-------------------------------------------| 
E|-------------------------------------------| 

Verse 
E|-------------------------------------------------------------------------| 
B|-------------------------------------------------------------------------| 
G|-----7-----7--9--11-----11--10--9-----9/11--10--9-----9/11--9/11--10--9--|  Repeat x2 
D|-------------------------------------------------------------------------| 
A|-------------------------------------------------------------------------| 
E|-------------------------------------------------------------------------| 

       D             F#                G                 D       
Cause I know that you've been waiting, such a long time that you've been waiting 

Chorus 
D            Em                       D             Em         
Only you know where you have been to, only you know what you have been through, 
    D                          Em                Em 
But there's better things you're gonna get into, and I wanna be there too.... 

Bridge 
E|-------------------------------------------| 
B|-------------------------------------------| 
G|-------------------------------------------| 
D|--5-----5--7\9--7\9--7-----7--7/9--7/9--7--|  Repeat x2 
A|-------------------------------------------| 
E|-------------------------------------------| 


E|-----------------------------------------------| 
B|-----------------------------------------------| 
G|-----------------------------------------------| 
D|--5--4-----5--4--2--4-----5--4-----5--4--2-----| 
A|--------------------------------------------5--| 
E|-----------------------------------------------| 

Verse 

Chorus 


************************************ 

| /  Slide up 

************************************ 
  

cifra enviadasem correções
enviado porenviada por:terr_schmitz
top 5 | arctic monkeys
top rock alternativo
Outras músicas do artista letras do(a) Arctic Monkeys
Top cifras »Top artistas »
Petaxxon Comunicação Online
Cifras.com.br - Melhor e mais completo site de cifras e tablaturas do Brasil
Mais de 1 milhão de acordes de músicas cadastradas desde 2003
As informações contidas no nosso site são colaborações de seus usuários e podem conter erros, sendo assim, não nos responsabilizamos sobre nenhuma destas.
close
menos
mais
close
Cor dos acordes:

Cor da letra:

 

save
close
close
 
redimensionar