Cifras e Tablaturas
Cifras Cancelar Versão de Impressão
cifras

Asaf Avidan & the Mojos - Devils Dance

fixar na tela  
Exibindo: vídeo-aula ver clipes redimensionar
  ------------------------------------------------------------------------------- 
                            Devils Dance - Asaf Avidan 
------------------------------------------------------------------------------- 
Tabbed by: pygman 
E-mail: pygman@web.de 

Tuning: Standard,  
capo 3 


Intro 

    Am                  G7 
e||-----0---------0---------1---------1p0-----| 
B||-1-----1---1-----1---0-----0---0-------0---| 
G||---2---------2---------0---------0---------| 
D||-----2---------2---------0---------0-------| 
A||-0---------0-------------------------------| 
E||---------------------3---------3-----------| 

    
    Am                    G7 
e|------0---------3p0---------1---------1p0-----|| 
B|--1-----1---1-------1---0-----0---0-------0---|| 
G|----2---------2-----------0---------0--------*||x2 
D|------2---------2-----------0---------0------*|| 
A|--0---------0---------------------------------|| 
E|------------------------3---------3-----------|| 


verse 1 

    Am                  G7 
e||-----0---------0---------1---------1p0------|| 
B||-1-----1---1-----1---0-----0---0-------0----|| 
G||---2---------2---------0---------0---------*|| 
D||-----2---------2---------0---------0-------*||x3 
A||-0---------0--------------------------------|| 
E||---------------------3---------3------------|| 

              Lying on... 
               
   Am                    G7 
e|-----0---------3p0---------1--------------| 
B|-1-----1---1-------1---0-----0---0--------| 
G|---2---------2-----------0---------0------| 
D|-----2---------2-----------0--------------| 
A|-0---------0------------------------------| 
E|-----------------------3---------3---0----| 


Chorus 1 
    
   F                   E7 
e|-----1---------1---------0---------0------| 
B|-1-----1---1-----1---0-----0---0-----0----| 
G|---2---------2---------1---------1--------| 
D|-----3-------------------0---------0------| 
A|---------------3--------------------------| 
E|-1---------1---------0---------0----------| 

             Dance little... 


   Am                  C         D/E 
e|-----0---------0--------------------------| 
B|-1-----1---1-------------1---------3------| 
G|---2---------2-----------0---------2------| 
D|-----2---------2-------2---------0--------| 
A|-0---------0------------------------------| 
E|-----------------0---3-----3---2-----2----| 


   F                   E7 
e|-----1---------1---------0---------0------| 
B|-1-----1---1-----1---0-----0---0-----0----| 
G|---2---------2---------1---------1--------| 
D|-----3-------------------0---------0------| 
A|---------------3--------------------------| 
E|-1---------1---------0---------0----------| 


    Am                  Am 
e|-----0---------0---------0---------3p0-----| 
B|-1-----1---1-----1---1-----1---1-------1---| 
G|---2---------2---------2---------2---------| 
D|-----2---------2---------2---------2-------| 
A|-0---------0---------0---------0-----------| 
E|-------------------------------------------| 


verse 2 

    Am                  G7 
e||-----0---------0---------1---------1p0------|| 
B||-1-----1---1-----1---0-----0---0-------0----|| 
G||---2---------2---------0---------0---------*|| 
D||-----2---------2---------0---------0-------*||x3 
A||-0---------0--------------------------------|| 
E||---------------------3---------3------------|| 

               
   Am                    G7 
e|-----0---------3p0---------1--------------| 
B|-1-----1---1-------1---0-----0---0--------| 
G|---2---------2-----------0---------0------| 
D|-----2---------2-----------0--------------| 
A|-0---------0------------------------------| 
E|-----------------------3---------3---0----| 


Chorus 2 

   F                   E7 
e|-----1---------1---------0---------0------| 
B|-1-----1---1-----1---0-----0---0-----0----| 
G|---2---------2---------1---------1--------| 
D|-----3-------------------0---------0------| 
A|---------------3--------------------------| 
E|-1---------1---------0---------0----------| 


   Am                  C         D/E 
e|-----0---------0--------------------------| 
B|-1-----1---1-------------1---------3------| 
G|---2---------2-----------0---------2------| 
D|-----2---------2-------2---------0--------| 
A|-0---------0------------------------------| 
E|-----------------0---3-----3---2-----2----| 


   F                   E7 
e|-----1---------1---------0---------0------| 
B|-1-----1---1-----1---0-----0---0-----0----| 
G|---2---------2---------1---------1--------| 
D|-----3-------------------0---------0------| 
A|---------------3--------------------------| 
E|-1---------1---------0---------0----------| 


   Am                  C         D/E 
e|-----0---------0--------------------------| 
B|-1-----1---1-------------1---------3------| 
G|---2---------2-----------0---------2------| 
D|-----2---------2-------2---------0--------| 
A|-0---------0------------------------------| 
E|-----------------0---3-----3---2-----2----| 


   F                   E7 
e|-----1---------1---------0---------0------| 
B|-1-----1---1-----1---0-----0---0-----0----| 
G|---2---------2---------1---------1--------| 
D|-----3-------------------0---------0------| 
A|---------------3--------------------------| 
E|-1---------1---------0---------0----------| 


    Am                  Am 
e|-----0---------0---------0---------3p0-----| 
B|-1-----1---1-----1---1-----1---1-------1---| 
G|---2---------2---------2---------2---------| 
D|-----2---------2---------2---------2-------| 
A|-0---------0---------0---------0-----------| 
E|-------------------------------------------| 


Outro 
  
    Am                  G7 
e||-----0---------0---------1---------1p0------|| 
B||-1-----1---1-----1---0-----0---0-------0----|| 
G||---2---------2---------0---------0---------*|| 
D||-----2---------2---------0---------0-------*||x3 
A||-0---------0--------------------------------|| 
E||---------------------3---------3------------|| 

               
   Am                    G7 
e|-----0---------3p0---------1--------------| 
B|-1-----1---1-------1---0-----0---0--------| 
G|---2---------2-----------0---------0------| 
D|-----2---------2-----------0--------------| 
A|-0---------0------------------------------| 
E|-----------------------3---------3---0----| 


Chorus 2 

   F                   E7 
e|-----1---------1---------0---------0------| 
B|-1-----1---1-----1---0-----0---0-----0----| 
G|---2---------2---------1---------1--------| 
D|-----3-------------------0---------0------| 
A|---------------3--------------------------| 
E|-1---------1---------0---------0----------| 


   Am                    C         D/E 
e|-------0---------0--------------------------| 
B|-3p1-----1---1-------------1---------3------| 
G|-----2---------2-----------0---------2------| 
D|-------2---------2-------2---------0--------| 
A|-0-----------0------------------------------| 
E|-------------------0---3-----3---2-----2----| 


   F                   E7 
e|-----1---------1---------0---------0------| 
B|-1-----1---1-----1---0-----0---0-----0----| 
G|---2---------2---------1---------1--------| 
D|-----3-------------------0---------0------| 
A|---------------3--------------------------| 
E|-1---------1---------0---------0----------| 


   Am                    C         D/E 
e|-------0---------0--------------------------| 
B|-3p1-----1---1-------------1---------3------| 
G|-----2---------2-----------0---------2------| 
D|-------2---------2-------2---------0--------| 
A|-0-----------0------------------------------| 
E|-------------------0---3-----3---2-----2----| 


   F                 E7 
e|-----1----------------0-----------| 
B|-1-----1----------------0---0-----| 
G|---2------------------1---1-------| 
D|-----3----------------------------| 
A|----------------------------------| 
E|-1---------1------0---------------| 


    Am           
e|---------0-------0----| 
B|-------1---1-----1----| 
G|-----2-------2---2----| 
D|---2-----------2-2----| 
A|-0---------------0----| 
E|----------------------| 



Lying on the road 
waiting to be crushed 
that is how you used to 
hunger for my touch 

Dance little devil - dance 


Grasping to my flesh 
like hanging from a rope 
that is how we used to 
give each other hope 

Dance little devil - dance 
Dance little devil - dance 


************************************ 

| /   slide up 
| \   slide down 
| h   hammer-on 
| p   pull-off 
| ~   vibrato 
| +   harmonic 
| x   Mute note 
| b   Bend 
| pb  Pre-bend 
| br  Bend release 
| pbr Pre-bend release 
| brb Bend release bend 

************************************ 
  

cifra enviadasem correções
enviado porenviada por:tamamoreira
top 5 | asaf avidan & the mojos
top rock'n roll
Outras músicas do artista letras do(a) Asaf Avidan & the Mojos
Top cifras »Top artistas »
Petaxxon Comunicação Online
Cifras.com.br - Melhor e mais completo site de cifras e tablaturas do Brasil
Mais de 1 milhão de acordes de músicas cadastradas desde 2003
As informações contidas no nosso site são colaborações de seus usuários e podem conter erros, sendo assim, não nos responsabilizamos sobre nenhuma destas.
close
menos
mais
close
Cor dos acordes:

Cor da letra:

 

save
close
close
 
redimensionar