Cifras e Tablaturas
Asp

Asp

Werben

Cifras Cancelar Versão de Impressão
cifras

Asp - Werben

fixar na tela  
Exibindo: vídeo-aula ver clipes redimensionar

Tom:

G

ver outros tons
  
Intro 
e|---------------|---------------|-------|---------------|---------------|-------| 
B|---------------|---------------|-------|---------------|---------------|-------| 
G|---------------|---------------|-------|---------------|---------------|-------| 
D|4-4-4-4-4-4-4-4|7-7-7-7-2-2-2-2|5-5-4-4|4-4-4-4-4-4-4-4|7-7-7-7-2-2-2-2|5-5-5-5| 
A|2-2-2-2-2-2-2-2|5-5-5-5-0-0-0-0|5-5-4-4|2-2-2-2-2-2-2-2|5-5-5-5-0-0-0-0|5-5-5-5| 
D|---------------|---------------|5-5-4-4|---------------|---------------|5-5-5-5| 
    * *   * *       * *     * *             * *   * *       * *     * *     * * 

Verse 
Nothing is played. 

Chorus 
e|---------------|---------------|-------|---------------|---------------|-------| 
B|---------------|---------------|-------|---------------|---------------|-------| 
G|---------------|---------------|-------|---------------|---------------|-------| 
D|4-4-4-4-4-4-4-4|7-7-7-7-2-2-2-2|5-5-4-4|4-4-4-4-4-4-4-4|7-7-7-7-2-2-2-2|5-5-5-5| 
A|2-2-2-2-2-2-2-2|5-5-5-5-0-0-0-0|5-5-4-4|2-2-2-2-2-2-2-2|5-5-5-5-0-0-0-0|5-5-5-5| 
D|---------------|---------------|5-5-4-4|---------------|---------------|5-5-5-5| 
    * *   * *       * *     * *             * *   * *       * *     * *     * * 

e|-------|-----------|-------|-------| 
B|-------|-----------|-------|-------| 
G|-------|-----------|-------|-------| 
D|9-9-9-9|12-12-12-12|7-7-7-7|5-5-4-4|(x2) 
A|9-9-9-9|12-12-12-12|7-7-7-7|5-5-4-4| 
D|9-9-9-9|12-12-12-12|7-7-7-7|5-5-4-4| 

Verse 
Nothing is played. 

Chorus 
e|---------------|---------------|-------|---------------|---------------|-------| 
B|---------------|---------------|-------|---------------|---------------|-------| 
G|---------------|---------------|-------|---------------|---------------|-------| 
D|4-4-4-4-4-4-4-4|7-7-7-7-2-2-2-2|5-5-4-4|4-4-4-4-4-4-4-4|7-7-7-7-2-2-2-2|5-5-5-5| 
A|2-2-2-2-2-2-2-2|5-5-5-5-0-0-0-0|5-5-4-4|2-2-2-2-2-2-2-2|5-5-5-5-0-0-0-0|5-5-5-5| 
D|---------------|---------------|5-5-4-4|---------------|---------------|5-5-5-5| 
    * *   * *       * *     * *             * *   * *       * *     * *     * * 

e|-------|-----------|-------|-------| 
B|-------|-----------|-------|-------| 
G|-------|-----------|-------|-------| 
D|9-9-9-9|12-12-12-12|7-7-7-7|5-5-4-4|(x2) 
A|9-9-9-9|12-12-12-12|7-7-7-7|5-5-4-4| 
D|9-9-9-9|12-12-12-12|7-7-7-7|5-5-4-4| 

Bridge 
e|-------|-----------|-------|-------| 
B|-------|-----------|-------|-------| 
G|-------|-----------|-------|-------| 
D|9-9-9-9|12-12-12-12|7-7-7-7|5-5-4-4|(x4) 
A|9-9-9-9|12-12-12-12|7-7-7-7|5-5-4-4| 
D|9-9-9-9|12-12-12-12|7-7-7-7|5-5-4-4| 
  * * * *  *  *  *  * * * * * * * * * 

e|-------|-----------|-------|-------| 
B|-------|-----------|-------|-------| 
G|-------|-----------|-------|-------| 
D|9-9-9-9|12-12-12-12|7-7-7-7|5-5-4-4|(x4) 
A|9-9-9-9|12-12-12-12|7-7-7-7|5-5-4-4| 
D|9-9-9-9|12-12-12-12|7-7-7-7|5-5-4-4| 
    * *       *  *      * *     * * 

Outro 
e|-------|-----------|-------|-------| 
B|-------|-----------|-------|-------| 
G|-------|-----------|-------|-------| 
D|9-9-9-9|12-12-12-12|7-7-7-7|5-5-4-4|(x2) 
A|9-9-9-9|12-12-12-12|7-7-7-7|5-5-4-4| 
D|9-9-9-9|12-12-12-12|7-7-7-7|5-5-4-4| 


************************************ 
| *  Palm mute 
************************************ 
  

top 5 | asp
top rock'n roll
Outras músicas do artista letras do(a) Asp
Top cifras »Top artistas »
Petaxxon Comunicação Online
Cifras.com.br - Melhor e mais completo site de cifras e tablaturas do Brasil
Mais de 1 milhão de acordes de músicas cadastradas desde 2003
As informações contidas no nosso site são colaborações de seus usuários e podem conter erros, sendo assim, não nos responsabilizamos sobre nenhuma destas.
close
menos
mais
close
Cor dos acordes:

Cor da letra:

 

save
close
close
 
redimensionar