Cifras e Tablaturas
Assis Valente

Assis Valente

Boas Festas Tablatura Verificada

Compositor : (Assis Valente)

Cifras Cancelar Versão de Impressão
cifras

Assis Valente - Boas Festas

fixar na tela  
Exibindo: vídeo-aula ver clipes redimensionar
  
Acordes: G  Bm7/b5 E7 Am D7 

Parte 1: 

d|--0---2---4---5tr---4-4p5---4---2---0tr-0---2---0---------------| 
B|----------------------------------------------------1---0tr-----| 
G|------------------------------------------------------------0p2-| 
D|----------------------------------------------------------------| 

d|---------------0---2---4---5tr--4-4p5---4---2---0tr--0---2---0--| 
B|----------------------------------------------------------------| 
G|--0---2---0-----------------------------------------------------| 
D|----------------------------------------------------------------| 

d|------------------------------| 
B|--1---0tr---------------------| 
G|----------0-0p2---0---2---0tr-| 
D|------------------------------| 

Parte 2: 

d|--0------------------------0-------0-------0------0----| 
B|------1---0--------0---1-------0-------0-------0-----0-| 
G|--------------2----------------------------------------| 
D|-------------------------------------------------------| 

d|----4tr-3tr-2tr--------------0--------------| 
B|----3tr-2tr-1tr--1---1---1-------1---0------| 
G|------------------------------------------2-| 
D|--------------------------------------------| 

d|--------------------------------0---2---4---4---2---0-------0-| 
B|--------------0-----------------------------------------0-----| 
G|--2---2---2-------2---0---------------------------------------| 
D|--------------------------4-----------------------------------| 

d|--0-----------------------0---0--------0--------0-----4tr-3tr-2tr-| 
B|------1---0-------0---1-----------0--------0--------0-3tr-2tr-1tr-| 
G|--------------2---------------------------------------------------| 
D|------------------------------------------------------------------| 

d|----------------0---------------------------------------------| 
B|--1---1---1---------1---0----------------------0--------------| 
G|----------------------------2---2---2---2----------2---0------| 
D|------------------------------------------------------------4-| 

d|--0---2---4---4---2---0---5tr-| 
B|------------------------------| 
G|------------------------------| 
D|------------------------------| 

  

cifra enviadacorrigido por:Acelot
enviado porenviada por:Kaka do Cavaco
top 5 | assis valente
top infantis
Outras músicas do artista letras do(a) Assis Valente
Top cifras »Top artistas »
Petaxxon Comunicação Online
Cifras.com.br - Melhor e mais completo site de cifras e tablaturas do Brasil
Mais de 1 milhão de acordes de músicas cadastradas desde 2003
As informações contidas no nosso site são colaborações de seus usuários e podem conter erros, sendo assim, não nos responsabilizamos sobre nenhuma destas.
close
menos
mais
close
Cor dos acordes:

Cor da letra:

 

save
close
close
 
redimensionar