Cifras e Tablaturas
Audioslave

Audioslave

Original Fire

Cifras Cancelar Versão de Impressão Print

Audioslave - Original Fire

Tom:

  			Track 5 

Intro                                              1.______________ 
e|----------------|----------------|----------------|----------------| 
B|----------------|----------------|----------------|----------------| 
G1212121212121212|1111111111111111|1010101010101010|9~9~9~9~9~9~9~9~| 
D1212121212121212|1111111111111111|1010101010101010|9~9~9~9~9~9~9~9~| 
A|----------------|----------------|----------------|----------------| 
E|----------------|----------------|----------------|----------------| 

2._______________Verse 
e|----------------|----------------|----------------|----------------| 
B|----------------|----------------|----------------|----------------| 
G9|~9~9~9~--------|----------------|----------------|----------------| 
D9|~9~9~9~--------|----------------|----------------|----------------| 
A|--------9~~~5~~~|2~~~------------|------------5~~~|2~~~------------| 
E|--------7~~~3~~~|0~~~------------|------------3~~~|0~~~------------| 

e|----------------|----------------|----------------|----------------| 
B|----------------|----------------|----------------|----------------| 
G|----------------|----------------|----------------|----------------| 
D|----------------|----------------|----------------|----------------| 
A|------------5~~~|2~~~------------|------------5~~~|2~~~------------| 
E|------------3~~~|0~~~------------|------------3~~~|0~~~------------| 

e|----------------|----------------|----------------|----------------| 
B|----------------|----------------|----------------|----------------| 
G|----------------|----------------|----------------|----------------| 
D|----------------|----------------|----------------|----------------| 
A|------------5~~~|2~~~x-x-x-x-x-x-|x-x-x-x-x-x-5~~~|2~~~x-x-x-x-x-x-| 
E|------------3~~~|0~~~x-x-x-x-x-x-|x-x-x-x-x-x-3~~~|0~~~x-x-x-x-x-x-| 
                      . . . . . .  . . . . . .          . . . . . . 
e|----------------|----------------|----------------|----------------| 
B|----------------|----------------|----------------|----------------| 
G|----------------|----------------|----------------|----------------| 
D|----------------|----------------|----------------|----------------| 
A|x-x-x-x-x-x-5~~~|2~~~x-x-x-x-x-x-|x-x-x-x-x-x-5~~~|2~~~x-x-x-x-x-x-| 
E|x-x-x-x-x-x-3~~~|0~~~x-x-x-x-x-x-|x-x-x-x-x-x-3~~~|0~~~x-x-x-x-x-x-| 
 . . . . . .          . . . . . .  . . . . . .          . . . . . .                          Chorus 
e|----------------|----------------|----------------|----------------| 
B|----------------|----------------|----------------|----------------| 
G|----------------|----------------|----------------|----------------| 
D|----------------|----x------x----|----------------|----x------x----| 
A|x-x-x-x-9~~~5~~~|2~--x-2~2~-x-2~-|-2~--2~-2~-x5~~~|2~--x-2~2~-x-2~-| 
E|x-x-x-x-7~~~3~~~|0~--x-0~0~-x-0~-|-0~--0~-0~-x3~~~|0~--x-0~0~-x-0~-| 
 . . . . 
e|----------------|----------------|----------------|----------------| 
B|----------------|----------------|----------------|----------------| 
G|----------------|----------------|----------------|----------------| 
D|----------------|----x------x----|----------------|----x------x----| 
A|-2~--2~-9~~~5~~~|2~--x-2~2~-x-2~-|-2~--2~-2~-x5~~~|2~--x-2~2~-x-2~-| 
E|-0~--0~-7~~~3~~~|0~--x-0~0~-x-0~-|-0~--0~-0~-x3~~~|0~--x-0~0~-x-0~-| 
                 Interlude                         Verse 
e|----------------|----------------|----------------|----------------| 
B|----------------|----------------|----------------|----------------| 
G|----------------|----------------|----------------|----------------| 
D|----------------|----------------|----------------|----------------| 
A|-2~--2~-9~~~5~~~|2~~~x-x-x-x-x-x-|x-x-x-x-x-x-5~~~|2~~~------------| 
E|-0~--0~-7~~~3~~~|0~~~x-x-x-x-x-x-|x-x-x-x-x-x-3~~~|0~~~------------| 
                      . . . . . .  . . . . . . 
e|----------------|----------------|----------------|----------------| 
B|----------------|----------------|----------------|----------------| 
G|----------------|----------------|----------------|----------------| 
D|----------------|----------------|----------------|----------------| 
A|------------5~~~|2~~~------------|------------5~~~|2~~~------------| 
E|------------3~~~|0~~~------------|------------3~~~|0~~~------------| 

e|----------------|----------------|----------------|----------------| 
B|----------------|----------------|----------------|----------------| 
G|----------------|----------------|----------------|----------------| 
D|----------------|----------------|----------------|----------------| 
A|------------5~~~|2~~~------------|------------5~~~|2~~~x-x-x-x-x-x-| 
E|------------3~~~|0~~~------------|------------3~~~|0~~~x-x-x-x-x-x-| 
                                                        . . . . . . 
e|----------------|----------------|----------------|----------------| 
B|----------------|----------------|----------------|----------------| 
G|----------------|----------------|----------------|----------------| 
D|----------------|----------------|----------------|----------------| 
A|x-x-x-x-x-x-5~~~|2~~~x-x-x-x-x-x-|x-x-x-x-x-x-5~~~|2~~~x-x-x-x-x-x-| 
E|x-x-x-x-x-x-3~~~|0~~~x-x-x-x-x-x-|x-x-x-x-x-x-3~~~|0~~~x-x-x-x-x-x-| 
 . . . . . .          . . . . . .  . . . . . .          . . . . . . 
                                                   Chorus 
e|----------------|----------------|----------------|----------------| 
B|----------------|----------------|----------------|----------------| 
G|----------------|----------------|----------------|----------------| 
D|----------------|----------------|----------------|----x------x----| 
A|x-x-x-x-x-x-5~~~|2~~~x-x-x-x-x-x-|x-x-x-x-9~~~5~~~|2~--x-2~2~-x-2~-| 
E|x-x-x-x-x-x-3~~~|0~~~x-x-x-x-x-x-|x-x-x-x-7~~~3~~~|0~--x-0~0~-x-0~-| 
 . . . . . .          . . . . . .  . . . . 
e|----------------|----------------|----------------|----------------| 
B|----------------|----------------|----------------|----------------| 
G|----------------|----------------|----------------|----------------| 
D|----------------|----x------x----|----------------|----x------x----| 
A|-2~--2~-2~-x5~~~|2~--x-2~2~-x-2~-|-2~--2~-9~~~5~~~|2~--x-2~2~-x-2~-| 
E|-0~--0~-0~-x3~~~|0~--x-0~0~-x-0~-|-0~--0~-7~~~3~~~|0~--x-0~0~-x-0~-| 
                                                   Bridge 
e|----------------|----------------|----------------|----------------| 
B|----------------|----------------|----------------|----------------| 
G|----------------|----------------|----------------|----------------| 
D|----------------|----x------x----|----------------|----------------| 
A|-2~--2~-2~-x5~~~|2~--x-2~2~-x-2~-|-2~--2~-9~~~5~~~|7~~~------------| 
E|-0~--0~-0~-x3~~~|0~--x-0~0~-x-0~-|-0~--0~-7~~~3~~~|5~~~~-----------| 

e|----------------|----------------|----------------|----------------| 
B|----------------|----------------|----------------|----------------| 
G|----------------|----------------|----------------|----------------| 
D|----------------|----------------|----------------|----------------| 
A|--------2~~~5~~~|7~~~------------|--------9~~~12~~|2~~~------------| 
E|--------0~~~3~~~|5~~~------------|--------7~~~10~~|0~~~------------| 

e|----------------|----------------|----------------|----------------| 
B|----------------|----------------|----------------|----------------| 
G|----------------|1212121212121212|1111111111111111|1010101010101010| 
D|----------------|1212121212121212|1111111111111111|1010101010101010| 
A|--------9~~~12~~|----------------|----------------|----------------| 
E|--------7~~~10~~|----------------|----------------|----------------| 

e|----------------| 
B|----------------| 
G9|~9~9~9~9~9~9~9~| 
D9|~9~9~9~9~9~9~9~| 
A|----------------| 
E|----------------| 

e|----------------|----------------|----------------|----------------| 
B|----------------|------------15~~|----------------|------------15~~| 
G|----------------|------------16~~|----------------|------------16~~| 
D|----------------|------------17~~|----------------|------------17~~| 
A|----------------|----------------|----------------|----------------| 
E|----------------|----------------|----------------|----------------| 

e|----------------|----------------|----------------|----------------| 
B|----------------|------------15~~|----------------|----------------| 
G|----------------|------------16~~|----------------|----------------| 
D|----------------|------------17~~|----------------|----------------| 
A|----------------|----------------|----------------|--------2~~~5~~~| 
E|----------------|----------------|----------------|--------0~~~3~~~| 

e|----------------|----------------|----------------|----------------| 
B|----------------|----------------|----------------|----------------| 
G|----------------|----------------|----------------|----------------| 
D|----------------|----------------|----------------|----------------| 
A7|~~~------------|--------2~~~5~~~|7~~~------------|--------9~~~12~~| 
E5|~~~------------|--------0~~~3~~~|5~~~------------|--------7~~~10~~| 

e|----------------|----------------|----------------|----------------| 
B|----------------|----------------|----------------|----------------| 
G1212121212121212|1111111111111111|1010101010101010|9~9~9~9~--------| 
D1212121212121212|1111111111111111|1010101010101010|9~9~9~9~--------| 
A|----------------|----------------|----------------|--------9~~~5~~~| 
E|----------------|----------------|----------------|--------7~~~3~~~| 

e|----------------|----------------|----------------|----------------| 
B|----------------|----------------|----------------|----------------| 
G|----------------|----------------|----------------|----------------| 
D|----x------x----|----------------|----x------x----|----------------| 
A2|~--x-2~2~-x-2~-|-2~--2~-2~-x5~~~|2~--x-2~2~-x-2~-|-2~--2~-2~-x5~~~| 
E0|~--x-0~0~-x-0~-|-0~--0~-0~-x3~~~|0~--x-0~0~-x-0~-|-0~--0~-0~-x3~~~| 

e|----------------|----------------|----------------|----------------| 
B|----------------|----------------|----------------|----------------| 
G|----------------|----------------|----------------|----------------| 
D|----x------x----|----------------|----x------x----|----------------| 
A2|~--x-2~2~-x-2~-|-2~--2~-2~-x5~~~|2~--x-2~2~-x-2~-|-2~--2~-9~~~5~~~| 
E0|~--x-0~0~-x-0~-|-0~--0~-0~-x3~~~|0~--x-0~0~-x-0~-|-0~--0~-7~~~3~~~| 

e|----------------|----------------|----------------|----------------| 
B|----------------|----------------|----------------|----------------| 
G|----------------|----------------|----------------|----------------| 
D|----x------x----|----------------|----x------x----|----------------| 
A2|~--x-2~2~-x-2~-|-2~--2~-2~-x5~~~|2~--x-2~2~-x-2~-|-2~--2~-2~-x5~~~| 
E0|~--x-0~0~-x-0~-|-0~--0~-0~-x3~~~|0~--x-0~0~-x-0~-|-0~--0~-0~-x3~~~| 

e|----------------|----------------|----------------|----------------| 
B|----------------|----------------|----------------|----------------| 
G|----------------|----------------|----------------|----------------| 
D|----x------x----|----------------|----x------x----|----------------| 
A2~--x-2~2~-x-2~-|-2~--2~-2~-x5~~~|2~--x-2~2~-x-2~-|-2~--2~-9~~~5~~~| 
E0~--x-0~0~-x-0~-|-0~--0~-0~-x3~~~|0~--x-0~0~-x-0~-|-0~--0~-7~~~3~~~| 
    	
fixar
fixar inscrever-se

enviado porenviado por: rodr_aeh
cifra enviadaCorrigida por: sem correções
logo top cifrasComente
ico música do artistaMúsicas deste artista
ico curtiuCurtiu?
ico destaqueDestaque
Petaxxon Comunicação Online

Cifras.com.br - Melhor e mais completo site de cifras e tablaturas do Brasil Mais de 1 milhão de acordes de músicas cadastradas desde 2003
As informações contidas no nosso site são colaborações de seus usuários e podem conter erros, sendo assim, não nos responsabilizamos sobre nenhuma destas.

close
menos
mais
close
Cor dos acordes:

Cor da letra:

close
Alinhar acordes a direita Alinhar acordes a esquerda Alinhar acordes em baixo Alinhar acordes no topo
close
  Mostrar todos os acordes Esconder acordes muito fáceis Esconder acordes fáceis Esconder acordes intermediários
redimensionar
glossário