Cifras e Tablaturas
August Burns Red
Cifras Cancelar Versão de Impressão

August Burns Red - Float

Tom: C

  			
                                 ^ 
D|----__-----------------------13-12----^----------------------| 
A|---/  \-----------------------------10-11--------^-----------| 
F|-14-12-10--10/12------12\10----------------10--12-14--10-12--| 
C|------------------12-----------------------------------------| 
G|-------------------------------------------------------------| 
C|-------------------------------------------------------------| 

D|-------------------------------------------------------------| 
A|-------------------------------------------------------------| 
F|-2-----------------------------------------------------------| 
C|-0-----------------------------------------------------------| 
G|-0-----------------------------------------------------------| 
C|-0-----------------------------------------------------------| 




                                     ^ 
D|--------__-----------------------13-12------------------------| 
A|-------/  \-----------------------------10-------------15/17--| 
F|-----14-12-10--10/12------12\10-------------14/15-------------| 
C|-12-------------------12---------------------------12---------| 
G|--------------------------------------------------------------| 
C|--------------------------------------------------------------| 

D|--------------------------------------------------------------| 
A|--------------------------------------------------------------| 
F|-3-------------------------------5----------------------------| 
C|-x-------------------------------x----------------------------| 
G|-1-------------------------------3----------------------------| 
C|-3-------------------------------5----------------------------| 


  
                               
D|--------__-----------------------12----^---------------------| 
A|-------/  \--------------------------10-11--------^----------| 
F|-10--14-12-10--10/12------12\10-------------10--12-14--10-12-| 
C|----------------------12-------------------------------------| 
G|-------------------------------------------------------------| 
C|-------------------------------------------------------------| 

D|-------------------------------------------------------------| 
A|-3-----------------------------------------------------------| 
F|-2-----------------------------------------------------------| 
C|-0-----------------------------------------------------------| 
G|-0-----------------------------------------------------------| 
C|-0-----------------------------------------------------------| 



                                     ^ 
D|--------__-----------------------13-12----------------------| 
A|-------/  \-----------------------------10--15/17--------20-| 
F|-----14-12-10--10/12------12\10-----------------------------| 
C|-12------------------12-----------------------------15------| 
G|------------------------------------------------------------| 
C|------------------------------------------------------------| 

D|-------------------------------------------------------------| 
A|-------------------------------------------------------------| 
F|-3------------------------------5----------------------------| 
C|-X------------------------------X----------------------------| 
G|-1------------------------------3----------------------------| 
C|-3------------------------------5----------------------------| 







0:15 


                                 ^ 
D|----__-----------------------13-12----^----------------------| 
A|---/  \-----------------------------10-11--------^-----------| 
F|-14-12-10--10/12------12\10----------------10--12-14--10-12--| 
C|------------------12-----------------------------------------| 
G|-------------------------------------------------------------| 
C|-------------------------------------------------------------| 

D|-------------------------------------------------------------| 
A|-------------------------------------------------------------| 
F|-------------------------------------------------------------| 
C|-------------------------------------------------------------| 
G|-----------------1----------------------1---1-1--1-1---1-----| 
C|-0-0-0---0-0-0---3--0-0-0--0------------3---3-3--3-3---3-----| 
   * * *   * * *      * * *  *            *   * *  * *   * 


                                     ^ 
D|--------__-----------------------13-12------------------------| 
A|-------/  \-----------------------------10-------------15/17--| 
F|-----14-12-10--10/12------12\10-------------14/15-------------| 
C|-12-------------------12---------------------------12---------| 
G|--------------------------------------------------------------| 
C|--------------------------------------------------------------| 

D|---------------------------------------------------------------| 
A|---------------------------------------------------------------| 
F|---------------------------------------------------------------| 
C|-----------------------------------------------3---------------| 
G|-----------------------------1-----1-----1-----1-------8-------| 
C|-0---0-0--0-0---0------0-0---3-----3-----3-----3---0---8\------| 
   *   * *  * *   *      * *   *     *     *         *    



                               
D|--------__-----------------------12----^---------------------| 
A|-------/  \--------------------------10-11--------^----------| 
F|-10--14-12-10--10/12------12\10-------------10--12-14--10-12-| 
C|----------------------12-------------------------------------| 
G|-------------------------------------------------------------| 
C|-------------------------------------------------------------| 

D|-------------------------------------------------------------| 
A|-------------------------------------------------------------| 
F|-------------------------------------------------------------| 
C|-------------------------------------------------------------| 
G|-----------------1----------------------1---1-1--1-1---1-----| 
C|-0-0-0---0-0-0---3--0-0-0--0------------3---3-3--3-3---3-----| 
   * * *   * * *      * * *  *            *   * *  * *   * 


                                     ^ 
D|--------__-----------------------13-12-----------------------| 
A|-------/  \-----------------------------10--15/17-------20---| 
F|-----14-12-10--10/12------12\10------------------------------| 
C|-12------------------12----------------------------15--------| 
G|-------------------------------------------------------------| 
C|-------------------------------------------------------------| 

D|-------------------------------------------------------------| 
A|-------------------------------------------------------------| 
F|-------------------------------------------------------------| 
C|-------------------------------------------------------------| 
G|--------------------------------1---------1-------3----------| 
C|-0---0-0--0-0---0---------0-0---3---0-0---3---0---5----------| 
   *   * *  * *   *         * *       * *       *                 





0:28 


                                 ^ 
D|----__-----------------------10-12----^------------------------| 
A|---/  \-----------------------------10-11--------^-------------| 
F|-14-12-10--10/12------12\10----------------10--12-14--10-12----| 
C|------------------12-------------------------------------------| 
G|---------------------------------------------------------------| 
C|---------------------------------------------------------------| 

D|-------------------------------------------------------------| 
A|-------------------------------------------------------------| 
F|-------------------------------------------------------------| 
C|-------------------------------------------------------------| 
G|-----------------1----------------------1---1-1--1-1---1-----| 
C|-0-0-0---0-0-0---3--0-0-0--0------------3---3-3--3-3---3-----| 
   * * *   * * *      * * *  *            *   * *  * *   * 



                                     ^ 
D|--------__-----------------------13-12------------------------| 
A|-------/  \-----------------------------10-------------15/17--| 
F|-----14-12-10--10/12------12\10-------------14/15-------------| 
C|-12-------------------12---------------------------12---------| 
G|--------------------------------------------------------------| 
C|--------------------------------------------------------------| 

D|---------------------------------------------------------------| 
A|---------------------------------------------------------------| 
F|---------------------------------------------------------------| 
C|-----------------------------------------------3---------------| 
G|-----------------------------1-----1-----1-----1-------8-------| 
C|-0---0-0--0-0---0------0-0---3-----3-----3-----3---0---8\------| 
   *   * *  * *   *      * *   *     *     *         *    



                               
D|--------__-----------------------12----^---------------------| 
A|-------/  \--------------------------10-11--------^----------| 
F|-10--14-12-10--10/12------12\10-------------10--12-14--10-12-| 
C|----------------------12-------------------------------------| 
G|-------------------------------------------------------------| 
C|-------------------------------------------------------------| 

D|-------------------------------------------------------------| 
A|-------------------------------------------------------------| 
F|-------------------------------------------------------------| 
C|-------------------------------------------------------------| 
G|-----------------1----------------------1---1-1--1-1---1-----| 
C|-0-0-0---0-0-0---3--0-0-0--0------------3---3-3--3-3---3-----| 
   * * *   * * *      * * *  *            *   * *  * *   * 


                                     ^ 
D|--------__-----------------------13-12-----------------------| 
A|-------/  \-----------------------------10--15/17---------15-| 
F|-----14-12-10--10/12------12\10-----------------------14-----| 
C|-12------------------12----------------------------15--------| 
G|-------------------------------------------------------------| 
C|-------------------------------------------------------------| 

D|-------------------------------------------------------------| 
A|-------------------------------------------------------------| 
F|-------------------------------------------------------------| 
C|-------------------------------------------------------0-----| 
G|-0---0-0--0-0---0---------------1---------1-------3----0-----| 
C|-0---0-0--0-0---0---------0-0---3---0-0---3---0---5----0-----| 
   *   * *  * *   *         * *       * *       *                



D|------------------------------------------------------------| 
A|------------------------------------------------------------| 
F|-----------------------2---------------2--2--2--------------| 
C|-----------------------0---------------x--x--x--------------| 
G|-----------------------0---------------3--3--3-----13\------| 
C|---------------0---0-0-0---0---0-0-0-0-------------13-\-----| 
                 *   * *     *   * * * *          |    







0:45 



D|-----------------------------------------------------------------------------------_-----| 
A|---------------------------------------------------------1-----1------------------/ \----| 
F|-----------------_------10--10--10-------------------2------2-----2---------0----0-2-0---| 
C|--^------7------/ \-----10--10--10---------------3-------------------------------------3-| 
G|-7-8-----------8-7-5-0--8---8---8----------------3-----------------------3---------------| 
C|------0-----0-----------8---8---8---8-8-8-8-8-8--3--------------------2------------------| 
        *     *                       * * * * * *  


D|-----------------------------------------------------------------------------------------| 
A|-------------------_---------------------------------------------------------------------| 
F|--^---------------/ \---10--10--10--10------------------2--------------------------------| 
C|-7-8-----10-----10-8-7------10--10--10---------3--------3---------------2--2--2----------| 
G|----------------------------8---8---8----------3--------3---------------3--3--3----------| 
C|------0------0--------------8---8---8----------3---3-3--3---3--3-3-3-3--2--2--2---2-2-2--| 
      *      *                                     * *      *  * * * *            * * *  


D|-----------------------------------------------------------------------------------_-----| 
A|---------------------------------------------------------1-----1------------------/ \----| 
F|-----------------_------10--10--10-------------------2------2-----2---------0----0-2-0---| 
C|--^------7------/ \-----10--10--10---------------3-------------------------------------3-| 
G|-7-8-----------8-7-5-0--8---8---8----------------3-----------------------3---------------| 
C|------0-----0-----------8---8---8---8-8-8-8-8-8--3--------------------2------------------| 
        *     *                       * * * * * *  


D|----------------------------------------------------------------------------------------| 
A|-------------------_--------------------------------------------------------------------| 
F|--^---------------/ \---10--10--10--10-----------------2--------------------------------| 
C|-7-8-----10-----10-8-7------10--10--10-----------------3--------------------------------| 
G|----------------------------8---8---8------------------3--------------5--5-5--5-7--12---| 
C|------0------0--------------8---8---8----------3--3-3--3---3--3-3-3-3-5--5-5--5-7--12\--| 
        *      *                                 *  * *      *  * * * *          





1:06 


D|-----------------------------------------------------------------------| 
A|-----------------------------------------------------------------------| 
F|-----------------------------------------------------------------------| 
C|-----------------------------------------------------------------------| 
G|-8-8-0-0-8-8-0-0-7-7-8-8-0-0---------10-10-10-10-0-0-10-10-8-8-5-5-7-7-| 
C|-----------------------------8-8-8-8-----------------------------------| 
   * * * * * * * * * * * * * * * * * *  *  *  *  * * *  *  * * * * * * * 

D|-----------------------------------------------------------------| 
A|-----------------------------------------------------------------| 
F|-----------------------------------------------------------------| 
C|-----------------------------------------------------------------| 
G|-----------------------------------------------------------------| 
C|-0-0-0-0-0-0-0-0-0-0-0-0-0-0-8-8-8-8-8-8-8-8-8-8-8-8-8-8-8-8-8-8-| 
   * * * * * * * * * * * * * * * * * * * * * * * * * * * * * * * *  



D|-------------------------------------------------------------------------------| 
A|-------------------------------------------------------------------------------| 
F|-------------------------------------------------------------------------------| 
C|-------------------------------------------------------------------------------| 
G|-8-8-0-0-8-8-0-0-7-7-8-8-0-0---------10-10-10-10-10-10-12-12-12-12-12-12-12-12-| 
C|-----------------------------8-8-8-8-------------------------------------------| 
   * * * * * * * * * * * * * * * * * *  *  *  *  * * *  * *  *  *  *  *  *  * * 

D|-----------------------------------------------------------------| 
A|-----------------------------------------------------------------| 
F|-----------------------------------------------------------------| 
C|-----------------------------------------------------------------| 
G|-----------------------------------------------------------------| 
C|-0-0-0-0-0-0-0-0-0-0-0-0-0-0-8-8-8-8-8-8-8-8-8-8-5-5-5-5-5-5-5-5-| 
   * * * * * * * * * * * * * * * * * * * * * * * * * * * * * * * * 



D|-----------------------------------------------------------------------| 
A|-----------------------------------------------------------------------| 
F|-----------------------------------------------------------------------| 
C|-----------------------------------------------------------------------| 
G|-8-8-0-0-8-8-0-0-7-7-8-8-0-0---------10-10-10-10-0-0-10-10-8-8-5-5-7-7-| 
C|-----------------------------8-8-8-8-----------------------------------| 
   * * * * * * * * * * * * * * * * * *  *  *  *  * * *  *  * * * * * * * 

D|-----------------------------------------------------------------| 
A|-----------------------------------------------------------------| 
F|-----------------------------------------------------------------| 
C|-----------------------------------------------------------------| 
G|-----------------------------------------------------------------| 
C|-0-0-0-0-0-0-0-0-0-0-0-0-0-0-8-8-8-8-8-8-8-8-8-8-8-8-8-8-8-8-8-8-| 
   * * * * * * * * * * * * * * * * * * * * * * * * * * * * * * * *  




D|-------------------------------------------------------------------------------| 
A|-------------------------------------------------------------------------------| 
F|-------------------------------------------------------------------------------| 
C|-------------------------------------------------------------------------------| 
G|-8-8-0-0-8-8-0-0-7-7-8-8-0-0---------10-10-10-10-10-10-12-12-12-12-12-12-12-12-| 
C|-----------------------------8-8-8-8-------------------------------------------| 
   * * * * * * * * * * * * * * * * * *  *  *  *  * * *  * *  *  *  *  *  *  * * 

D|-----------------------------------------------------------------| 
A|-----------------------------------------------------------------| 
F|-----------------------------------------------------------------| 
C|-----------------------------------------------------------------| 
G|-----------------------------------------------------------------| 
C|-0-0-0-0-0-0-0-0-0-0-0-0-0-0-5-5-5-5-5-5-5-5-7-7-7-7-7-7-15\-----| 
   * * * * * * * * * * * * * * * * * * * * * * * * * * * *  





1:17 


D|-----------------------------------------------------------------------| 
A|-----------------------------------------------------------------------| 
F|-----------------------------------------------------------------------| 
C|-----------------------------------------------------------------------| 
G|-8-8-0-0-8-8-0-0-7-7-8-8-0-0---------10-10-10-10-0-0-10-10-8-8-5-5-7-7-| 
C|-----------------------------8-8-8-8-----------------------------------| 

D|-----------------------------------------------------------------------| 
A|-----------------------------------------------------------------------| 
F|-----------------------------------------------------------------------| 
C|-----------------------------------------------------------------------| 
G|-0---0-0------0-0---0-0---1---------------------------1-1-1--1-1-1-----| 
C|-0---0-0------0-0---0-0---3---------------------------3-3-3--3-3-3-----| 
   *   * *      * *   * *     |                         * * *  * * * 




D|-------------------------------------------------------------------------------| 
A|-------------------------------------------------------------------------------| 
F|-------------------------------------------------------------------------------| 
C|-------------------------------------------------------------------------------| 
G|-8-8-0-0-8-8-0-0-7-7-8-8-0-0---------10-10-10-10-10-10-12-12-12-12-12-12-12-12-| 
C|-----------------------------8-8-8-8-------------------------------------------| 

D|-------------------------------------------------------------------------------| 
A|-------------------------------------------------------------------------------| 
F|-------------------------------------------------------------------------------| 
C|-------------------------------------------------------------------------------| 
G|-0---0-0---0-0------0-0-0---1-------------------------3-3-3---3-3-3------------| 
C|-0---0-0---0-0------0-0-0---3-------------------------5-5-5---5-5-5------------| 
   *   * *   * *      * * *     |                       * * *   * * * 




D|-----------------------------------------------------------------------| 
A|-----------------------------------------------------------------------| 
F|-----------------------------------------------------------------------| 
C|-----------------------------------------------------------------------| 
G|-8-8-0-0-8-8-0-0-7-7-8-8-0-0---------10-10-10-10-0-0-10-10-8-8-5-5-7-7-| 
C|-----------------------------8-8-8-8-----------------------------------| 

D|-----------------------------------------------------------------------| 
A|-----------------------------------------------------------------------| 
F|-----------------------------------------------------------------------| 
C|-----------------------------------------------------------------------| 
G|-0---0-0------0-0---0-0---1---------------------------1-1-1--1-1-1-----| 
C|-0---0-0------0-0---0-0---3---------------------------3-3-3--3-3-3-----| 
   *   * *      * *   * *     |                         * * *  * * * 




D|-------------------------------------------------------------------| 
A|-------------------------------------------------------------------| 
F|-------------------------------------------------------------------| 
C|-------------------------------------------------------------------| 
G|-8-8-0-0-8-8-0-0-7-7-8-8-0-0---------10-10-10-10-10-10-7-7-7-7-7\--| 
C|-----------------------------8-8-8-8-------------------------------| 

D|------------------------------------------------------------------| 
A|------------------------------------------------------------------| 
F|------------------------------------------------------------------| 
C|------------------------------------------------------------------| 
G|-0---0-0-0-0-0------0-0-0-0-1-------------------------7-7-7---7---| 
C|-0---0-0-0-0-0------0-0-0-0-3-------------------------7-7-7---7\--| 
   *   * * * * *      * * * *   |                       * * *   




1:28 


D|-----------------------------------------------------------------------| 
A|-----------------------------------------------------------------------| 
F|-10----------10--------9/10-----------/12---------12---10---7---9------| 
C|-------7-----------7----------7-8------------8-------------------------| 
G|-----------------------------------------------------------------------| 
C|-----------------------------------------------------------------------| 

D|-----------------------------------------------------------------------| 
A|-----------------------------------------------------------------------| 
F|-----------------------------------------------------------------------| 
C|-----------------------------------------------------------------------| 
G|-0---0-0------0-0---0-0---1---------------------------1-1-1--1-1-1-----| 
C|-0---0-0------0-0---0-0---3---------------------------3-3-3--3-3-3-----| 
   *   * *      * *   * *     |                         * * *  * * * 



D|-----------------------------------------------------------------------| 
A|-----------------------------------------------------------------------| 
F|-10----------10--------9/10-----------/12------------17-17-15-15-14\---| 
C|-------7-----------7----------7-8------------8---/---------------------| 
G|-----------------------------------------------------------------------| 
C|-----------------------------------------------------------------------| 

D|-----------------------------------------------------------------------| 
A|-----------------------------------------------------------------------| 
F|-----------------------------------------------------------------------| 
C|-----------------------------------------------------------------------| 
G|-0---0-0---0-0------0-0-0---1-------------------------3-3-3---3-3-3----| 
C|-0---0-0---0-0------0-0-0---3-------------------------5-5-5---5-5-5----| 
   *   * *   * *      * * *     |                       * * *   * * * 




D|-----------------------------------------------------------------------| 
A|-----------------------------------------------------------------------| 
F|-10----------10--------9/10-----------/12---------12---10---7---9------| 
C|-------7-----------7----------7-8------------8-------------------------| 
G|-----------------------------------------------------------------------| 
C|-----------------------------------------------------------------------| 

D|-----------------------------------------------------------------------| 
A|-----------------------------------------------------------------------| 
F|-----------------------------------------------------------------------| 
C|-----------------------------------------------------------------------| 
G|-0---0-0------0-0---0-0---1---------------------------1-1-1--1-1-1-----| 
C|-0---0-0------0-0---0-0---3---------------------------3-3-3--3-3-3-----| 
   *   * *      * *   * *     |                         * * *  * * * 



D|-----------------------------------------------------------------------| 
A|-----------------------------------------------------------------------| 
F|-10----------10--------9/10-----------/12---------/14~-----------------| 
C|-------7-----------7----------7-8------------8-------------------------| 
G|-----------------------------------------------------------------------| 
C|-----------------------------------------------------------------------| 

D|------------------------------------------------------------------| 
A|------------------------------------------------------------------| 
F|------------------------------------------------------------------| 
C|------------------------------------------------------------------| 
G|-0---0-0-0-0-0------0-0-0-0-1-------------------------7-7-7---7---| 
C|-0---0-0-0-0-0------0-0-0-0-3-------------------------7-7-7---7\--| 
   *   * * * * *      * * * *   |                       * * *   






1:40 


D|-------------------------------------------------------------| 
A|-------------------------------------------------------------| 
F|-------------------------------------------------------------| 
C|-------------------------------------------------------------| 
G|----------------7-0------------------------------------------| 
C|-0-0-0---0-0-0--7-0--0--0--------------0---0-0--0-0---0------| 
   * * *   * * *       *  *              *   * *  * *   * 


D|---------------------------------------------------------------| 
A|---------------------------------------------------------------| 
F|---------------------------------------------------------------| 
C|-------------------------------------------3-------------------| 
G|-------------------------1-----1-----1-----1-------8-----------| 
C|-0---0-0--0-0---0---0-0--3-----3-----3-----3---0---8\----------| 
   *   * *  * *   *   * *  *     *     *         *    



D|-------------------------------------------------------------| 
A|-------------------------------------------------------------| 
F|-------------------------------------------------------------| 
C|----------------7--------------------------------------------| 
G|----------------5\0--------------------1---1-1--1-1---1------| 
C|-0-0-0---0-0-0----0--0--0--------------3---3-3--3-3---3------| 
   * * *   * * *       *  *              *   * *  * *   * 


D|---------------------------------------------------------------| 
A|---------------------------------------------------------------| 
F|---------------------------------------------------------------| 
C|---------------------------------------------------------------| 
G|-----------------------------1---------1-------3---------------| 
C|-0---0-0--0-0---0------0-0---3---0-0---3---0---5---------------| 
   *   * *  * *   *      * *       * *       *                 








1:52 

                                 ^ 
D|----__-----------------------13-12----^----------------------| 
A|---/  \-----------------------------10-11--------^-----------| 
F|-14-12-10--10/12------12\10----------------10--12-14--10-12--| 
C|------------------12-----------------------------------------| 
G|-------------------------------------------------------------| 
C|-------------------------------------------------------------| 

D|-------------------------------------------------------------| 
A|-------------------------------------------------------------| 
F|-------------------------------------------------------------| 
C|-------------------------------------------------------------| 
G|-----------------1----------------------1---1-1--1-1---1-----| 
C|-0-0-0---0-0-0---3--0-0-0--0------------3---3-3--3-3---3-----| 
   * * *   * * *      * * *  *            *   * *  * *   * 

                                     ^ 
D|--------__-----------------------13-12------------------------| 
A|-------/  \-----------------------------10-------------15/17--| 
F|-----14-12-10--10/12------12\10-------------14/15-------------| 
C|-12-------------------12---------------------------12---------| 
G|--------------------------------------------------------------| 
C|--------------------------------------------------------------| 

D|---------------------------------------------------------------| 
A|---------------------------------------------------------------| 
F|---------------------------------------------------------------| 
C|-----------------------------------------------3---------------| 
G|-----------------------------1-----1-----1-----1-------8-------| 
C|-0---0-0--0-0---0------0-0---3-----3-----3-----3---0---8\------| 
   *   * *  * *   *      * *   *     *     *         *    



                               
D|--------__-----------------------12----^---------------------| 
A|-------/  \--------------------------10-11--------^----------| 
F|-10--14-12-10--10/12------12\10-------------10--12-14--10-12-| 
C|----------------------12-------------------------------------| 
G|-------------------------------------------------------------| 
C|-------------------------------------------------------------| 

D|-------------------------------------------------------------| 
A|-------------------------------------------------------------| 
F|-------------------------------------------------------------| 
C|-------------------------------------------------------------| 
G|-----------------1----------------------1---1-1--1-1---1-----| 
C|-0-0-0---0-0-0---3--0-0-0--0------------3---3-3--3-3---3-----| 
   * * *   * * *      * * *  *            *   * *  * *   * 

                                     ^ 
D|--------__-----------------------13-12-------------------------| 
A|-------/  \-----------------------------10--15/17-------20--18-| 
F|-----14-12-10--10/12------12\10--------------------------------| 
C|-12------------------12----------------------------15----------| 
G|---------------------------------------------------------------| 
C|---------------------------------------------------------------| 

D|---------------------------------------------------------------| 
A|---------------------------------------------------------------| 
F|---------------------------------------------------------------| 
C|-----------------------------------------------------3---------| 
G|--------------------------------1---------1-------3--3---------| 
C|-0---0-0--0-0---0---------0-0---3---0-0---3---0---5--3---------| 
   *   * *  * *   *         * *       * *       *                 



                                          FADES IN  

D|-------------1-1-1-1-1-1-1-1-1-1-------------1-1-1-1-1-1-1-1-1-1--| 
A|-1-1-1-1-1-1-1-1-1-1-1-1-1-1-1-1-1-1-1-1-1-1-1-1-1-1-1-1-1-1-1-1--| 
F|-2-2-2-2-2-2-2-2-2-2-2-2-2-2-2-2-2-2-2-2-2-2-2-2-2-2-2-2-2-2-2-2--| 
C|-3-3-3-3-3-3-3-3-3-3-3-3-3-3-3-3-3-3-3-3-3-3-3-3-3-3-3-3-3-3-3-3--| 
G|------------------------------------------------------------------| 
C|------------------------------------------------------------------| 



D|-------------------5-5-5-5-5-5-5-------------------5-5-5-5-5-5-5-| 
A|-5-5-5-5-5-5-6-6-6-6-6-6-6-6-6-6-5-5-5-5-5-5-6-6-6-6-6-6-6-6-6-6-| 
F|-5-5-5-5-5-5-5-5-5-5-5-5-5-5-5-5-5-5-5-5-5-5-5-5-5-5-5-5-5-5-5-5-| 
C|-3-3-3-3-3-3-3-3-3-3-3-3-3-3-3-3-3-3-3-3-3-3-3-3-3-3-3-3-3-3-3-3-| 
G|-----------------------------------------------------------------| 
C|-----------------------------------------------------------------| 







2:15 

D|------------------0------------------------------0-------------------| 
A|------------1--------1---------------------1--------1----------------| 
F|---------2-----2---------)(-------------2-----2---------)(-----------| 
C|-3----3-----------------2-------3----3-----------------2----------3--| 
G|-3--------------------------3---3---------------------------0--3-----| 
C|-3------------------------------3------------------------------------| 

D|-------------1-1-1-1-1-1-1-1-1-1-------------1-1-1-1-1-1-1-1-1-1--| 
A|-1-1-1-1-1-1-1-1-1-1-1-1-1-1-1-1-1-1-1-1-1-1-1-1-1-1-1-1-1-1-1-1--| 
F|-2-2-2-2-2-2-2-2-2-2-2-2-2-2-2-2-2-2-2-2-2-2-2-2-2-2-2-2-2-2-2-2--| 
C|-3-3-3-3-3-3-3-3-3-3-3-3-3-3-3-3-3-3-3-3-3-3-3-3-3-3-3-3-3-3-3-3--| 
G|------------------------------------------------------------------| 
C|------------------------------------------------------------------| 



D|---------------------------------------------------------_------| 
A|------------1----------------------------1----------1---/ \-----| 
F|-------------------2----------------------------2------0 / 2~---| 
C|-3----0--3-----3------0--3----3----0--3-----3-------------------| 
G|-1----------------------------1---------------------------------| 
C|----------------------------------------------------------------| 

D|-------------------5-5-5-5-5-5-5-------------------5-5-5-5-5-5-5-| 
A|-5-5-5-5-5-5-6-6-6-6-6-6-6-6-6-6-5-5-5-5-5-5-6-6-6-6-6-6-6-6-6-6-| 
F|-5-5-5-5-5-5-5-5-5-5-5-5-5-5-5-5-5-5-5-5-5-5-5-5-5-5-5-5-5-5-5-5-| 
C|-3-3-3-3-3-3-3-3-3-3-3-3-3-3-3-3-3-3-3-3-3-3-3-3-3-3-3-3-3-3-3-3-| 
G|-----------------------------------------------------------------| 
C|-----------------------------------------------------------------| 




D|------------------0------------------------------0-------------------| 
A|------------1--------1---------------------1--------1----------------| 
F|---------2-----2---------)(-------------2-----2---------)(-----------| 
C|-3----3-----------------2-------3----3-----------------2----------3--| 
G|-3--------------------------3---3---------------------------0--3-----| 
C|-3------------------------------3------------------------------------| 

D|-------------1-1-1-1-1-1-1-1-1-1-------------1-1-1-1-1-1-1-1-1-1--| 
A|-1-1-1-1-1-1-1-1-1-1-1-1-1-1-1-1-1-1-1-1-1-1-1-1-1-1-1-1-1-1-1-1--| 
F|-2-2-2-2-2-2-2-2-2-2-2-2-2-2-2-2-2-2-2-2-2-2-2-2-2-2-2-2-2-2-2-2--| 
C|-3-3-3-3-3-3-3-3-3-3-3-3-3-3-3-3-3-3-3-3-3-3-3-3-3-3-3-3-3-3-3-3--| 
G|------------------------------------------------------------------| 
C|------------------------------------------------------------------| 



D|---------------------------------------------------------_------| 
A|------------1----------------------------1----------1---/ \-----| 
F|-------------------2----------------------------2------0 / 2~---| 
C|-3----0--3-----3------0--3----3----0--3-----3-------------------| 
G|-1----------------------------1---------------------------------| 
C|----------------------------------------------------------------| 

D|-------------------5-5-5-5-5-5-5-------------------5-5-5-5-5-5-5-| 
A|-5-5-5-5-5-5-6-6-6-6-6-6-6-6-6-6-5-5-5-5-5-5-6-6-6-6-6-6-6-6-6-6-| 
F|-5-5-5-5-5-5-5-5-5-5-5-5-5-5-5-5-5-5-5-5-5-5-5-5-5-5-5-5-5-5-5-5-| 
C|-3-3-3-3-3-3-3-3-3-3-3-3-3-3-3-3-3-3-3-3-3-3-3-3-3-3-3-3-3-3-3-3-| 
G|-----------------------------------------------------------------| 
C|-----------------------------------------------------------------| 




D|------------------0------------------------------0-------------------| 
A|------------1--------1---------------------1--------1----------------| 
F|---------2-----2---------)(-------------2-----2---------)(-----------| 
C|-3----3-----------------2-------3----3-----------------2----------3--| 
G|-3--------------------------3---3---------------------------0--3-----| 
C|-3------------------------------3------------------------------------| 

D|-------------1-1-1-1-1-1-1-1-1-1-------------1-1-1-1-1-1-1-1-1-1--| 
A|-1-1-1-1-1-1-1-1-1-1-1-1-1-1-1-1-1-1-1-1-1-1-1-1-1-1-1-1-1-1-1-1--| 
F|-2-2-2-2-2-2-2-2-2-2-2-2-2-2-2-2-2-2-2-2-2-2-2-2-2-2-2-2-2-2-2-2--| 
C|-3-3-3-3-3-3-3-3-3-3-3-3-3-3-3-3-3-3-3-3-3-3-3-3-3-3-3-3-3-3-3-3--| 
G|------------------------------------------------------------------| 
C|------------------------------------------------------------------| 



D|---------------------------------------------------------------------| 
A|------------1----------------------------1---------------------------| 
F|-------------------2----------------------------2---5---7/10--10/12--| 
C|-3----0--3-----3------0--3----3----0--3-----3------------------------| 
G|-1----------------------------1--------------------------------------| 
C|---------------------------------------------------------------------| 

D|-------------------5-5-5-5-5-5-5-------------------5-5-5-5-5-5-5-| 
A|-5-5-5-5-5-5-6-6-6-6-6-6-6-6-6-6-5-5-5-5-5-5-6-6-6-6-6-6-6-6-6-6-| 
F|-5-5-5-5-5-5-5-5-5-5-5-5-5-5-5-5-5-5-5-5-5-5-5-5-5-5-5-5-5-5-5-5-| 
C|-3-3-3-3-3-3-3-3-3-3-3-3-3-3-3-3-3-3-3-3-3-3-3-3-3-3-3-3-3-3-3-3-| 
G|-----------------------------------------------------------------| 
C|-----------------------------------------------------------------| 






2:52 


                                                               __ 
D|------------------------------------------------------------/  \-------| 
A|------------------------------------------------------13--13-15-13-----| 
F|-10--12--12/14--12--10---------10--12--12/14--12--14----------------12-| 
C|-----------------------------------------------------------------------| 
G|-----------------------------------------------------------------------| 
C|-----------------------------------------------------------------------| 

D|-----------------------------------------------------------------------| 
A|-----------------------------------------------------------------------| 
F|--2---2---2---2---10------------2---2---2---2--0---0---0--0---0--------| 
C|--0---0---0---0---8-------------3---3---3---3--5---5---5--5---5--------| 
G|--0---0---0---0---8-------------3---3---3---3--3---3---3--3---3--------| 
C|--0---0---0---0---8-------------3---3---3---3--5---5---5--5---5--------| 


                                                              
D|-----------------------------------------------------------------------| 
A|-----------------------------------------------------------------------| 
F|-10--12--12/14--12--10----------5--------------------------------------| 
C|-----------------------------------------------------------------------| 
G|-----------------------------------------------------------------------| 
C|-----------------------------------------------------------------------| 

D|-----------------------------------------------------------------------| 
A|-----------------------------------------------------------------------| 
F|--2---2---2---2---10------------2--------------------------------------| 
C|--0---0---0---0---8-------------3--------------------------------------| 
G|--0---0---0---0---8-------------3--------------------------------------| 
C|--0---0---0---0---8-------------3--------------------------------------| 




                                                             
D|------------------------------------------------------------^----------| 
A|------------------------------------------------------13--15-13--------| 
F|-10--12--12/14--12--10---------10--12--12/14--12--14-------------12----| 
C|-----------------------------------------------------------------------| 
G|-----------------------------------------------------------------------| 
C|-----------------------------------------------------------------------| 

D|-----------------------------------------------------------------------| 
A|-----------------------------------------------------------------------| 
F|--2---2---2---2---10------------2---2---2---2--0---0---0--0---0--------| 
C|--0---0---0---0---8-------------3---3---3---3--5---5---5--5---5--------| 
G|--0---0---0---0---8-------------3---3---3---3--3---3---3--3---3--------| 
C|--0---0---0---0---8-------------3---3---3---3--5---5---5--5---5--------| 



                                                         
D|-----------------------------------------------------------------------| 
A|-----------------------------------------------------------------------| 
F|-10--12--12/14--12--10----------5--------------------------------------| 
C|-----------------------------------------------------------------------| 
G|-----------------------------------------------------------------------| 
C|-----------------------------------------------------------------------| 

D|-----------------------------------------------------------------------| 
A|-----------------------------------------------------------------------| 
F|--2---2---2---2---10------------2--------------0-----------------------| 
C|--0---0---0---0---8-------------3--------------5-----------------------| 
G|--0---0---0---0---8-------------3--------------3-----------------------| 
C|--0---0---0---0---8-------------3--------------5-----------------------| 







3:15 


                                 ^ 
D|----__-----------------------13-12----^------------------------| 
A|---/  \-----------------------------10-11--------^-------------| 
F|-14-12-10--10/12------12\10----------------10--12-14--10-12----| 
C|------------------12-------------------------------------------| 
G|---------------------------------------------------------------| 
C|---------------------------------------------------------------| 

D|-------------------------------------------------------------| 
A|-------------------------------------------------------------| 
F|-------------------------------------------------------------| 
C|-------------------------------------------------------------| 
G|-----------------1----------------------1---1-1--1-1---1-----| 
C|-0-0-0---0-0-0---3--0-0-0--0------------3---3-3--3-3---3-----| 
   * * *   * * *      * * *  *            *   * *  * *   * 


                                     ^ 
D|--------__-----------------------13-12------------------------| 
A|-------/  \-----------------------------10-------------15/17--| 
F|-----14-12-10--10/12------12\10-------------14/15-------------| 
C|-12-------------------12---------------------------12---------| 
G|--------------------------------------------------------------| 
C|--------------------------------------------------------------| 

D|---------------------------------------------------------------| 
A|---------------------------------------------------------------| 
F|---------------------------------------------------------------| 
C|-----------------------------------------------3---------------| 
G|-----------------------------1-----1-----1-----1-------8-------| 
C|-0---0-0--0-0---0------0-0---3-----3-----3-----3---0---8\------| 
   *   * *  * *   *      * *   *     *     *         *    


                           
D|--------__-----------------------12----^---------------------| 
A|-------/  \--------------------------10-11--------^----------| 
F|-10--14-12-10--10/12------12\10-------------10--12-14--10-12-| 
C|----------------------12-------------------------------------| 
G|-------------------------------------------------------------| 
C|-------------------------------------------------------------| 

D|-------------------------------------------------------------| 
A|-------------------------------------------------------------| 
F|-------------------------------------------------------------| 
C|-------------------------------------------------------------| 
G|-----------------1----------------------1---1-1--1-1---1-----| 
C|-0-0-0---0-0-0---3--0-0-0--0------------3---3-3--3-3---3-----| 
   * * *   * * *      * * *  *            *   * *  * *   * 

                                     ^ 
D|--------__-----------------------13-12-----------------------| 
A|-------/  \-----------------------------10--15/17-------20---| 
F|-----14-12-10--10/12------12\10------------------------------| 
C|-12------------------12----------------------------15--------| 
G|-------------------------------------------------------------| 
C|-------------------------------------------------------------| 

D|-------------------------------------------------------------| 
A|-------------------------------------------------------------| 
F|-------------------------------------------------------------| 
C|-------------------------------------------------------------| 
G|--------------------------------1---------1-------3----------| 
C|-0---0-0--0-0---0---------0-0---3---0-0---3---0---5----------| 
   *   * *  * *   *         * *       * *       *                 









                                 ^ 
D|----__-----------------------13-12----^------------------------| 
A|---/  \-----------------------------10-11--------^-------------| 
F|-14-12-10--10/12------12\10----------------10--12-14--10-12----| 
C|------------------12-------------------------------------------| 
G|---------------------------------------------------------------| 
C|---------------------------------------------------------------| 


D|-------------------------------------------------------------| 
A|-------------------------------------------------------------| 
F|-------------------------------------------------------------| 
C|-------------------------------------------------------------| 
G|-----------------1----------------------1---1-1--1-1---1-----| 
C|-0-0-0---0-0-0---3--0-0-0--0------------3---3-3--3-3---3-----| 
   * * *   * * *      * * *  *            *   * *  * *   * 



                                     ^ 
D|--------__-----------------------13-12------------------------| 
A|-------/  \-----------------------------10-------------15/17--| 
F|-----14-12-10--10/12------12\10-------------14/15-------------| 
C|-12-------------------12---------------------------12---------| 
G|--------------------------------------------------------------| 
C|--------------------------------------------------------------| 


D|---------------------------------------------------------------| 
A|---------------------------------------------------------------| 
F|---------------------------------------------------------------| 
C|-----------------------------------------------3---------------| 
G|-----------------------------1-----1-----1-----1-------8-------| 
C|-0---0-0--0-0---0------0-0---3-----3-----3-----3---0---8\------| 
   *   * *  * *   *      * *   *     *     *         *    



                               
D|--------__-----------------------12----^---------------------| 
A|-------/  \--------------------------10-11--------^----------| 
F|-10--14-12-10--10/12------12\10-------------10--12-14--10-12-| 
C|----------------------12-------------------------------------| 
G|-------------------------------------------------------------| 
C|-------------------------------------------------------------| 

D|-------------------------------------------------------------| 
A|-------------------------------------------------------------| 
F|-------------------------------------------------------------| 
C|-------------------------------------------------------------| 
G|-----------------1----------------------1---1-1--1-1---1-----| 
C|-0-0-0---0-0-0---3--0-0-0--0------------3---3-3--3-3---3-----| 
   * * *   * * *      * * *  *            *   * *  * *   * 

                                     ^ 
D|--------__-----------------------13-12-----------------------| 
A|-------/  \-----------------------------10--15/17------------| 
F|-----14-12-10--10/12------12\10------------------------14----| 
C|-12------------------12----------------------------15--------| 
G|-------------------------------------------------------------| 
C|-------------------------------------------------------------| 

D|-------------------------------------------------------------| 
A|-------------------------------------------------------------| 
F|-------------------------------------------------------------| 
C|-------------------------------------------------------------| 
G|--------------------------------1---------1-------3----------| 
C|-0---0-0--0-0---0---------0-0---3---0-0---3---0---5----------| 
   *   * *  * *   *         * *       * *       *                 





3:40 



D|----------------------------------------------------------------------------------------| 
A|----------------------------------------------------------------------------------------| 
F|----------------------------------------------------------------------------------------| 
C|----------------------------------------------------------------------------------------| 
G|---------------1----------------1--1-1--1-1--1----3--3-3--3-3--3------3-------3-----12--| 
C|-0-0-0--0-0-0--3--0-0-0--0------3--3-3--3-3--3----3--3-3--3-3--3--0-0-2--2-2--2--2--12\-| 
   * * *  * * *     * * *  *      *  * *  * *  *    *  * *  * *  *  * *    * *     * 



D|----------------------------------------------------------------------------------------| 
A|----------------------------------------------------------------------------------------| 
F|----------------------------------------------------------------------------------------| 
C|----------------------------------------------------------------------------------------| 
G|---------------1----------------1--1-1--1-1--1----3-3-3-3--3-3--3------3------3----3-3--| 
C|-0-0-0--0-0-0--3--0-0-0--0------3--3-3--3-3--3----3-3-3-3--3-3--3--0-0-5--0-0-5--0-5-5--| 
   * * *  * * *  *  * * *  *      *  * *  * *  *    * * * *  * *  *  * *    * *    * 





3:51 

                                 __                    __ 
                                /  \                  /  \ 
D|-----------__---------------12-10-12-12/13--------13-12/13---/17-15----18-17---------| 
A|----------/  \----13-10~-------------------13----------------------------------------| 
F|-/14~---12\10-12---------------------------------------------------------------------| 
C|-------------------------------------------------------------------------------------| 
G|-------------------------------------------------------------------------------------| 
C|-------------------------------------------------------------------------------------| 

D|----------------------------------------------------------------------------------------| 
A|----------------------------------------------------------------------------------------| 
F|----------------------------------------------------------------------------------------| 
C|----------------------------------------------------------------------------------------| 
G|---------------1----------------1--1-1--1-1--1----3--3-3--3-3--3------3-------3-----12--| 
C|-0-0-0--0-0-0--3--0-0-0--0------3--3-3--3-3--3----3--3-3--3-3--3--0-0-2--2-2--2--2--12\-| 
 * * *  * * *     * * *  *      *  * *  * *  *    *  * *  * *  *  * *    * *     * 




         )(                                       __ 
D|-----18----17----------------------------------/  \--------------)(--------------| 
A|-18------------18---15---18--18/20--18--18---20-18-17------17--17-----17----15---| 
F|-------------------------------------------------------17------------------------| 
C|---------------------------------------------------------------------------------| 
G|---------------------------------------------------------------------------------| 
C|---------------------------------------------------------------------------------| 

D|-----------------------------------------------------------------------------------------| 
A|-----------------------------------------------------------------------------------------| 
F|-----------------------------------------------------------------------------------------| 
C|----------------------------------------------------------------------------------------0| 
G|---------------1----------------1--1-1--1-1--1----3-3-3-3--3-3--3------3------3----3-3--0| 
C|-0-0-0--0-0-0--3--0-0-0--0------3--3-3--3-3--3----3-3-3-3--3-3--3--0-0-5--0-0-5--0-5-5--0| 
 * * *  * * *  *  * * *  *      *  * *  * *  *    * * * *  * *  *  * *    * *    * 
    	
fixar
fixar inscrever-se

enviado porenviado por: PAULLET3
cifra enviadaCorrigida por: sem correções
logo top cifrasComente
ico música do artistaMúsicas deste artista
ico curtiuCurtiu?
ico destaqueDestaque
Petaxxon Comunicação Online

Cifras.com.br - Melhor e mais completo site de cifras e tablaturas do Brasil Mais de 1 milhão de acordes de músicas cadastradas desde 2003
As informações contidas no nosso site são colaborações de seus usuários e podem conter erros, sendo assim, não nos responsabilizamos sobre nenhuma destas.

close
menos
mais
close
Cor dos acordes:

Cor da letra:

close
Alinhar acordes a direita Alinhar acordes a esquerda Alinhar acordes em baixo Alinhar acordes no topo
close
  Mostrar todos os acordes Esconder acordes muito fáceis Esconder acordes fáceis Esconder acordes intermediários
redimensionar
glossário