Cifras e Tablaturas
Avatar

Avatar

Hail The Apocalypse

Cifras Cancelar Versão de Impressão
cifras

Avatar - Hail The Apocalypse

fixar na tela  
Exibindo: vídeo-aula ver clipes redimensionar
  
Intro 
Play the open B string and put the whammy bar down, listen to the song an you will get it, 

B |:-----------:|-----------|----------0| 
F#|:-----------:|-----------|----------0| 
D |:-----------:|-----------|----------0| 
A |:-----------:|-----------|----------0| 
E |:-----------:|-----------|----------0| 
B |:0-0-0-0-0-0:|0-0-0-0-0-0|0-0-0-0-0--| 


B |------------------|  
F#|------------------| 
D |------------------| 
A |------------------| 
E |------------------| 
B |7p-0-8p-0-9p-0-10p| 

Verse 

B |---------------------| 
F#|---------------------| 
D |---------------------|x6 
A |---------------------| 
E |2-2-2-2-2-2----------| 
B |0-0-0-0-0-0-3/4/5/6/7| 
  * * * * * * * * * * * * 

Pre-Chorus 
Play the open B string and put the whammy bar down, listen to the song an you will get it, 

B |:-----------:|-----------|----------0| 
F#|:-----------:|-----------|----------0| 
D |:-----------:|-----------|----------0| 
A |:-----------:|-----------|----------0| 
E |:-----------:|-----------|----------0| 
B |:0-0-0-0-0-0:|0-0-0-0-0-0|0-0-0-0-0--| 

("Time to die  Hammer high     Name your price   And kneel") 
B |-------------------------------------------------------------------------| 
F#|-99999999----1010101010-----1212121212-------1515151515151515------------| 
D |-xxxxxxxx-----xxxxxxxx-------xxxxxxxx--------xxxxxxxxxxxxxxxxx-----------| 
A |-66666666-----77777777-------99999999--------1212121212121212--------0*--| 
E |----------7/9-----------9/11-----------11/14-------------------------0*--| 
B |---------------------------------------------------------------------0*--| 
                                                                        PM 


Chorus x2 

B |----------|---------|----------|-------|-------------| 
F#|----------|---------|16-14-13--|-------|-------------| 
D |--9/13\9--|---------|----------|9-11-9-|-------------| 
A |--x/x-\x--|---------|----------|x--x-x-|--------6-7-6| 
E |--7/11\7--|4H-5H4H--|----------|7/-9/7-|----6/7------| 
B |0--------0|--------0|---------0|-------|5-4----------| 


B |----------|---------|----------|-------|----------| 
F#|----------|---------|16-14-13--|-------|----------| 
D |--9/13\9--|---------|----------|-------|----------| 
A |--x/x-\x--|---------|----------|----6--|6/7-------| 
E |--7/11\7--|4H-5H4H--|----------|7-7---7|----9-9/11| 
B |0--------0|--------0|---------0|4-5----|----------| 

Post-Chorus 
Play the open B string and put the whammy bar down, listen to the song an you will get it, 

B |:-----------:|-----------|----------0| 
F#|:-----------:|-----------|----------0| 
D |:-----------:|-----------|----------0| 
A |:-----------:|-----------|----------0| 
E |:-----------:|-----------|----------0| 
B |:0-0-0-0-0-0:|0-0-0-0-0-0|0-0-0-0-0--| 

Verse 
Play this like the first verse just without the B stting listen to the song an you will get it, 

B |----------0| 
F#|----------0| 
D |----------0| 
A |----------0| 
E |----------0| 
B |-----------| 


Pre-Chorus 

("   die       Hammer high     Name your price   And kneel") 
B |-------------------------------------------------------------------------| 
F#|-99999999----1010101010-----1212121212-------1515151515151515------------| 
D |-xxxxxxxx-----xxxxxxxx-------xxxxxxxx--------xxxxxxxxxxxxxxxxx-----------| 
A |-66666666-----77777777-------99999999--------1212121212121212--------0*--| 
E |----------7/9-----------9/11-----------11/14-------------------------0*--| 
B |---------------------------------------------------------------------0*--| 
                                                                        PM 

Chorus x2 

B |----------|---------|----------|-------|-------------| 
F#|----------|---------|16-14-13--|-------|-------------| 
D |--9/13\9--|---------|----------|9-11-9-|-------------| 
A |--x/x-\x--|---------|----------|x--x-x-|--------6-7-6| 
E |--7/11\7--|4H-5H4H--|----------|7/-9/7-|----6/7------| 
B |0--------0|--------0|---------0|-------|5-4----------| 


B |----------|---------|----------|-------|----------| 
F#|----------|---------|16-14-13--|-------|----------| 
D |--9/13\9--|---------|----------|-------|----------| 
A |--x/x-\x--|---------|----------|----6--|6/7-------| 
E |--7/11\7--|4H-5H4H--|----------|7-7---7|----9-9/11| 
B |0--------0|--------0|---------0|4-5----|----------| 

Bridge 
Its almost the same as the verse just another rythm with the whammy , listen to the song and aou will get it 

B |:-----------:|-----------|----------| 
F#|:-----------:|-----------|----------| 
D |:-----------:|-----------|----------| 
A |:-----------:|-----------|----------| 
E |:-----------:|-----------|----------| 
B |:0-0-0-0-0-0:|0-0-0-0-0-0|0-0-0-0-0-| 

Pre-Chorus 
Play the open B string and put the whammy bar down, listen to the song an you will get it, 

B |:-----------:|-----------|----------0| 
F#|:-----------:|-----------|----------0| 
D |:-----------:|-----------|----------0| 
A |:-----------:|-----------|----------0| 
E |:-----------:|-----------|----------0| 
B |:0-0-0-0-0-0:|0-0-0-0-0-0|0-0-0-0-0--| 

Chorus x2 

B |----------|---------|----------|-------|-------------| 
F#|----------|---------|16-14-13--|-------|-------------| 
D |--9/13\9--|---------|----------|9-11-9-|-------------| 
A |--x/x-\x--|---------|----------|x--x-x-|--------6-7-6| 
E |--7/11\7--|4H-5H4H--|----------|7/-9/7-|----6/7------| 
B |0--------0|--------0|---------0|-------|5-4----------| 


B |----------|---------|----------|-------|----------| 
F#|----------|---------|16-14-13--|-------|----------| 
D |--9/13\9--|---------|----------|-------|----------| 
A |--x/x-\x--|---------|----------|----6--|6/7-------| 
E |--7/11\7--|4H-5H4H--|----------|7-7---7|----9-9/11| 
B |0--------0|--------0|---------0|4-5----|----------| 

Post-Chorus 
Play the open B string and put the whammy bar down, listen to the song an you will get it, 

B |:-----------:|-----------|----------0| 
F#|:-----------:|-----------|----------0| 
D |:-----------:|-----------|----------0| 
A |:-----------:|-----------|----------0| 
E |:-----------:|-----------|----------0| 
B |:0-0-0-0-0-0:|0-0-0-0-0-0|0-0-0-0-0--|  
  

top 5 | avatar
top rock'n roll
Outras músicas do artista letras do(a) Avatar
Top cifras »Top artistas »
Petaxxon Comunicação Online
Cifras.com.br - Melhor e mais completo site de cifras e tablaturas do Brasil
Mais de 1 milhão de acordes de músicas cadastradas desde 2003
As informações contidas no nosso site são colaborações de seus usuários e podem conter erros, sendo assim, não nos responsabilizamos sobre nenhuma destas.
close
menos
mais
close
Cor dos acordes:

Cor da letra:

 

save
close
close
 
redimensionar