Cifras e Tablaturas
Avatar

Avatar

Night Never Ending

Cifras Cancelar Versão de Impressão
cifras

Avatar - Night Never Ending

fixar na tela  
Exibindo: vídeo-aula ver clipes redimensionar

Tom:

  
Intro 
D|-------------7-------7---------------7-------7-| 
A|-7---9---7-------7-------7---9---7-------7-----|4 
F|-----------------------------------------------|  (x4) 
C|-----------------------------------------------| 
G|-----------------------------------------------| 
C|-----------------------------------------------| 

D|-----------------------------------------------| 
A|-0---0---0---0---0---0---0---0---0---0---0---0-|5 
F|-----------------------------------------------| 
C|-----------------------------------------------| 
G|-----------------------------------------------| 
C|-----------------------------------------------| 

D|-----------------------------------------------| 
A|-5---5---5---4---4---4---2---2---2---0---0---0-|6 
F|-----------------------------------------------| 
C|-----------------------------------------------| 
G|-----------------------------------------------| 
C|-----------------------------------------------| 

D|-----------------------------------------------| 
A|-----------------------------------------------|7 
F|-3---3---3---3---3---3---3---3---3---3---3---3-| 
C|-----------------------------------------------| 
G|-----------------------------------------------| 
C|-----------------------------------------------| 

D|-----------------------------------------------| 
A|-4---4---4---5---5---5---2---2---2---4---4---4-|8 
F|-----------------------------------------------| 
C|-----------------------------------------------| 
G|-----------------------------------------------| 
C|-----------------------------------------------| 

D|-----------------------------------------------| 
A|-0---0---0---0---0---0---0---0---0---0---0---0-|9 
F|-----------------------------------------------| 
C|-----------------------------------------------| 
G|-----------------------------------------------| 
C|-----------------------------------------------| 

D|-----------------------------------------------| 
A|-5---5---5---4---4---4---7---7---7---4---4---4-|10 
F|-----------------------------------------------| 
C|-----------------------------------------------| 
G|-----------------------------------------------| 
C|-----------------------------------------------| 

D|-----------------------------------------------| 
A|-5---5---5---5---5---5---7---7---7---7---7---7-|11 
F|-----------------------------------------------| 
C|-----------------------------------------------| 
G|-----------------------------------------------| 
C|-----------------------------------------------| 

D|-----------------------------------------------------------| 
A|-11---11---11---11---11---11---12---12---12---12---12---12-|12 
F|-----------------------------------------------------------| 
C|-----------------------------------------------------------| 
G|-----------------------------------------------------------| 
C|-----------------------------------------------------------| 

D|-----------------------------------------------| 
A|-----------------------------------------------| 
F|-----------------------------------------------|  (x2) 
C|-----------------------------------------------| 
G|-----------------------------------------------| 
C|-9---9---9---9---9---9---9---9---9---9---9---9-| 
PM .   .   .   .   .   .   .   .   .   .   .   . 

Verse 
D|-----------------------------------------------| 
A|-----------------------------------------------| 
F|-----------------------------------------------|  (x4) 
C|-----------------------------------------------| 
G|-----------------------------------------------| 
C|-9---9---9---9---9---9---9---9---9---9---9---9-| 
PM .   .   .   .   .   .   .   .   .   .   .   . 

D|-----------------------------------------------| 
A|-----------------------------------------------| 
F|-----------------------------------------------|  (x3) 
C|-------------9-----------------------9---------| 
G|-----9---------------9-------9---------------9-| 
C|-9-------9-------9-------9-------9-------9-----| 
PM .   .   .   .   .   .   .   .   .   .   .   . 

D|---------------------------------------| 
A|---------------------------------------| 
F|---------------------------------------| 
C|-------------9-----------------------9-| 
G|-----9---------------9-------9---------| 
C|-9-------9-------9-------9-------9-----| 
PM .   .   .   .   .   .   .   .   .   . 

D|-----------------------------------------------| 
A|-----------------------------------------------| 
F|-----------------------------------------------| 
C|-------------2-----------------------2---------| 
G|-----2---------------2-------2---------------2-| 
C|-2-------2-------2-------2-------2-------2-----| 
PM .   .   .   .   .   .   .   .   .   .   .   . 

D|---------------------------------------| 
A|---------------------------------------| 
F|---------------------------------------| 
C|-------------------------------------4-| 
G|---------------------2---1---2---4-----| 
C|-4---6---8---6---8---------------------| 
PM .   .   .   .   .   .   .   .   .   . 

Chorus 
D|-----------------------------------------------| 
A|-----------------------------------------------| 
F|-----------------------------------------------| 
C|-------------9-----------------------9---------| 
G|-----9---------------9-------9---------------9-| 
C|-9-------9-------9-------9-------9-------9-----| 

D|---------------------------------------| 
A|---------------------------------------| 
F|---------------------------------------| 
C|-------------9-----------------------9-| 
G|-----9---------------9-------9---------| 
C|-9-------9-------9-------9-------9-----| 

D|-----------------------------------------------| 
A|-----------------------------------------------| 
F|-----------------------------------------------| 
C|-------------4-----------------------4---------| 
G|-----4---------------4-------4---------------4-| 
C|-4-------4-------4-------4-------4-------4-----| 

D|---------------------------------------| 
A|---------------------------------------| 
F|---------------------------------------| 
C|-------------4-----------------------4-| 
G|-----4---------------4-------4---------| 
C|-4-------4-------4-------4-------4-----| 

D|-----------------------------------------------| 
A|-----------------------------------------------| 
F|-----------------------------------------------| 
C|-------------9-----------------------9---------| 
G|-----9---------------9-------9---------------9-| 
C|-9-------9-------9-------9-------9-------9-----| 

D|---------------------------------------| 
A|---------------------------------------| 
F|---------------------------------------| 
C|-------------9-----------------------9-| 
G|-----9---------------9-------9---------| 
C|-9-------9-------9-------9-------9-----| 

D|-----------------------------------------------| 
A|-----------------------------------------------| 
F|-----------------------------------------------| 
C|-------------2-----------------------2---------| 
G|-----2---------------2-------2---------------2-| 
C|-2-------2-------2-------2-------2-------2-----| 

D|---------------------------------------| 
A|---------------------------------------| 
F|---------------------------------------| 
C|-------------------------------------4-| 
G|---------------------2---1---2---4-----| 
C|-2---6---8---6---8---------------------| 

Choir 
D|-----------------------------------------------| 
A|-----------------------------------------------| 
F|-----------------------------------------------|  (x2) 
C|-9---9---9---9---9---9---9---9---9---9---9---9-| 
G|-9---9---9---9---9---9---9---9---9---9---9---9-| 
C|-9---9---9---9---9---9---9---9---9---9---9---9-| 

D|-----------------------------------------------| 
A|-----------------------------------------------| 
F|-----------------------------------------------|  (x2) 
C|-4---4---4---4---4---4---4---4---4---4---4---4-| 
G|-4---4---4---4---4---4---4---4---4---4---4---4-| 
C|-4---4---4---4---4---4---4---4---4---4---4---4-| 

D|-----------------------------------------------| 
A|-----------------------------------------------| 
F|-----------------------------------------------|  (x2) 
C|-9---9---9---9---9---9---9---9---9---9---9---9-| 
G|-9---9---9---9---9---9---9---9---9---9---9---9-| 
C|-9---9---9---9---9---9---9---9---9---9---9---9-| 

D|-----------------------------------------------| 
A|-----------------------------------------------| 
F|-----------------------------------------------| 
C|-2---2---2---2---2---2---2---2---2---2---2---2-| 
G|-2---2---2---2---2---2---2---2---2---2---2---2-| 
C|-2---2---2---2---2---2---2---2---2---2---2---2-| 

D|---------------------------------------| 
A|---------------------------------------| 
F|---------------------------------------| 
C|-------------------------------------4-| 
G|---------------------2---1---2---4-----| 
C|-4---6---8---6---8---------------------| 

Solo 
D|---------------------------------------------------| 
A|--------------12-----------------------------------| 
F|-----11--------------11----------------------------| 
C|-9--------9---------------11---13---11-------9-----| 
G|-----------------------------------------9-------9-| 
C|---------------------------------------------------| 

D|-------------------------------------------| 
A|--------------12---------------------------| 
F|-----11--------------11--------------------| 
C|-9--------9---------------11---13---11-----| 
G|-----------------------------------------9-| 
C|-------------------------------------------| 

D|---------------------------------------------------| 
A|--------------12-----------------------------------| 
F|-----11--------------11----------------------------| 
C|-9--------9---------------11---13---11-------9-----| 
G|-----------------------------------------9-------9-| 
C|---------------------------------------------------| 

D|-----------------------------------------------| 
A|-------------5---------------------------------| 
F|-----4-------------4---------------------------| 
C|-2-------2-------------------------------------| 
G|-----------------------------------------------| 
C|-----------------------6---8---9---8---6---4---| 

D|---------------------------------------------------| 
A|--------------12-----------------------------------| 
F|-----11--------------11----------------------------| 
C|-9--------9---------------11---13---11-------9-----| 
G|-----------------------------------------9-------9-| 
C|---------------------------------------------------| 

D|-------------------------------------------| 
A|--------------12---------------------------| 
F|-----11--------------11--------------------| 
C|-9--------9---------------11---13---11-----| 
G|-----------------------------------------9-| 
C|-------------------------------------------| 

D|---------------------------------------------------| 
A|--------------12-----------------------------------| 
F|-----11--------------11----------------------------| 
C|-9--------9---------------11---13---11-------9-----| 
G|-----------------------------------------9-------9-| 
C|---------------------------------------------------| 

D|-----------------------------------------------| 
A|-------------5---------------------------------| 
F|-----4-------------4---------------------------| 
C|-2-------2-------------------------------------| 
G|-----------------------------------------------| 
C|-----------------------6---8---9---8---6---4---| 

D|----------------------------------------------------------------| 
A|----------------------------------------------------------------| 
F|----------------------------------------------------------------| 
C|-13---11--13--11---11---9---11---13---11--13--11---11---10---11-| 
G|----------------------------------------------------------------| 
C|----------------------------------------------------------------| 

D|-------------------------------------------------| 
A|-------------------------------------------------| 
F|-------------------------------------------------| 
C|-13---11---13---15---13---15---16---15---16---11-| 
G|-------------------------------------------------| 
C|-------------------------------------------------| 

D|----------------------------------------------------------------| 
A|----------------------------------------------------------------| 
F|----------------------------------------------------------------| 
C|-13---11--13--11---11---9---11---13---11--13--11---11---10---11-| 
G|----------------------------------------------------------------| 
C|----------------------------------------------------------------| 

D|-------------------------------------------------| 
A|-------------------------------------------------| 
F|-------------------------------------------------| 
C|-13---11---13---15---13---11---13---11---10---11-| 
G|-------------------------------------------------| 
C|-------------------------------------------------| 

D|-----------------------------------------------| 
A|-----------------------------------------------| 
F|-11---9---9---9------8---11---9---9---9------8-| 
C|-----------------------------------------------| 
G|-----------------------------------------------| 
C|-----------------------------------------------| 
PM      .   .                   .   . 

D|-------------------------------------------------| 
A|-------------------------------------------------| 
F|-11---9---9---9------8---------------------------| 
C|-------------------------9---11---9--------------| 
G|--------------------------------------9---11---9-| 
C|-------------------------------------------------| 
PM      .   . 

D|-----------------------------------------------| 
A|-----------------------------------------------| 
F|-11---9---9---9------8---11---9---9---9------8-| 
C|-----------------------------------------------| 
G|-----------------------------------------------| 
C|-----------------------------------------------| 
PM      .   .                   .   . 

D|----------------------------------------| 
A|----------------------------------------| 
F|-11---9---9---9------8------------------| 
C|-------------------------9---11---9-----| 
G|--------------------------------------9-| 
C|----------------------------------------| 
PM      .   . 

D|-----------------------------------------------| 
A|-----------------------------------------------| 
F|-11---9---9---9------8---11---9---9---9------8-| 
C|-----------------------------------------------| 
G|-----------------------------------------------| 
C|-----------------------------------------------| 
PM      .   .                   .   . 

D|-------------------------------------------------| 
A|-------------------------------------------------| 
F|-11---9---9---9------8---------------------------| 
C|-------------------------9---11---9--------------| 
G|--------------------------------------9---11---9-| 
C|-------------------------------------------------| 
PM      .   . 

D|-----------------------------------------------| 
A|-----------------------------------------------| 
F|-11---9---9---9------8---11---9---9---9------8-| 
C|-----------------------------------------------| 
G|-----------------------------------------------| 
C|-----------------------------------------------| 
PM      .   .                   .   . 

D|---------------------------------------| 
A|---------------------------------------| 
F|---------------------------------------| 
C|-------------------------8---8---8---9-| 
G|-7---7---7---9---9---9-----------------| 
C|---------------------------------------| 

D|---------------------------------------------------| 
A|--------------12-----------------------------------| 
F|-----11--------------11----------------------------| 
C|-9--------9---------------11---13---11-------9-----| 
G|-----------------------------------------9-------9-| 
C|---------------------------------------------------| 

D|-------------------------------------------| 
A|--------------12---------------------------| 
F|-----11--------------11--------------------| 
C|-9--------9---------------11---13---11-----| 
G|-----------------------------------------9-| 
C|-------------------------------------------| 

D|---------------------------------------------------| 
A|--------------12-----------------------------------| 
F|-----11--------------11----------------------------| 
C|-9--------9---------------11---13---11-------9-----| 
G|-----------------------------------------9-------9-| 
C|---------------------------------------------------| 

D|-----------------------------------------------| 
A|-------------5---------------------------------| 
F|-----4-------------4---------------------------| 
C|-2-------2-------------------------------------| 
G|-------------------------------------------2---| 
C|-----------------------4---6---8---6---8-------| 

Chorus 
D|-----------------------------------------------| 
A|-----------------------------------------------| 
F|-----------------------------------------------| 
C|-------------9-----------------------9---------| 
G|-----9---------------9-------9---------------9-| 
C|-9-------9-------9-------9-------9-------9-----| 

D|---------------------------------------| 
A|---------------------------------------| 
F|---------------------------------------| 
C|-------------9-----------------------9-| 
G|-----9---------------9-------9---------| 
C|-9-------9-------9-------9-------9-----| 

D|-----------------------------------------------| 
A|-----------------------------------------------| 
F|-----------------------------------------------| 
C|-------------4-----------------------4---------| 
G|-----4---------------4-------4---------------4-| 
C|-4-------4-------4-------4-------4-------4-----| 

D|---------------------------------------| 
A|---------------------------------------| 
F|---------------------------------------| 
C|-------------4-----------------------4-| 
G|-----4---------------4-------4---------| 
C|-4-------4-------4-------4-------4-----| 

D|-----------------------------------------------| 
A|-----------------------------------------------| 
F|-----------------------------------------------| 
C|-------------9-----------------------9---------| 
G|-----9---------------9-------9---------------9-| 
C|-9-------9-------9-------9-------9-------9-----| 

D|---------------------------------------| 
A|---------------------------------------| 
F|---------------------------------------| 
C|-------------9-----------------------9-| 
G|-----9---------------9-------9---------| 
C|-9-------9-------9-------9-------9-----| 

D|-----------------------------------------------| 
A|-----------------------------------------------| 
F|-----------------------------------------------| 
C|-------------2-----------------------2---------| 
G|-----2---------------2-------2---------------2-| 
C|-2-------2-------2-------2-------2-------2-----| 

D|---------------------------------------| 
A|---------------------------------------| 
F|---------------------------------------| 
C|-------------------------------------4-| 
G|---------------------2---1---2---4-----| 
C|-4---6---8---6---8---------------------| 

Choir 
D|-----------------------------------------------| 
A|-----------------------------------------------| 
F|-----------------------------------------------|  (x2) 
C|-9---9---9---9---9---9---9---9---9---9---9---9-| 
G|-9---9---9---9---9---9---9---9---9---9---9---9-| 
C|-9---9---9---9---9---9---9---9---9---9---9---9-| 

D|-----------------------------------------------| 
A|-----------------------------------------------| 
F|-----------------------------------------------|  (x2) 
C|-4---4---4---4---4---4---4---4---4---4---4---4-| 
G|-4---4---4---4---4---4---4---4---4---4---4---4-| 
C|-4---4---4---4---4---4---4---4---4---4---4---4-| 

D|-----------------------------------------------| 
A|-----------------------------------------------| 
F|-----------------------------------------------|  (x2) 
C|-9---9---9---9---9---9---9---9---9---9---9---9-| 
G|-9---9---9---9---9---9---9---9---9---9---9---9-| 
C|-9---9---9---9---9---9---9---9---9---9---9---9-| 

D|-----------------------------------------------| 
A|-----------------------------------------------| 
F|-----------------------------------------------| 
C|-2---2---2---2---2---2---2---2---2---2---2---2-| 
G|-2---2---2---2---2---2---2---2---2---2---2---2-| 
C|-2---2---2---2---2---2---2---2---2---2---2---2-| 

D|---------------------------------------| 
A|---------------------------------------| 
F|---------------------------------------| 
C|-------------------------------------4-| 
G|---------------------2---1---2---4-----| 
C|-4---6---8---6---8---------------------| 

Chorus 
D|-----------------------------------------------| 
A|-----------------------------------------------| 
F|-----------------------------------------------| 
C|-------------9-----------------------9---------| 
G|-----9---------------9-------9---------------9-| 
C|-9-------9-------9-------9-------9-------9-----| 

D|---------------------------------------| 
A|---------------------------------------| 
F|---------------------------------------| 
C|-------------9-----------------------9-| 
G|-----9---------------9-------9---------| 
C|-9-------9-------9-------9-------9-----| 

D|-----------------------------------------------| 
A|-----------------------------------------------| 
F|-----------------------------------------------| 
C|-------------4-----------------------4---------| 
G|-----4---------------4-------4---------------4-| 
C|-4-------4-------4-------4-------4-------4-----| 

D|---------------------------------------| 
A|---------------------------------------| 
F|---------------------------------------| 
C|-------------4-----------------------4-| 
G|-----4---------------4-------4---------| 
C|-4-------4-------4-------4-------4-----| 

D|-----------------------------------------------| 
A|-----------------------------------------------| 
F|-----------------------------------------------| 
C|-------------9-----------------------9---------| 
G|-----9---------------9-------9---------------9-| 
C|-9-------9-------9-------9-------9-------9-----| 

D|---------------------------------------| 
A|---------------------------------------| 
F|---------------------------------------| 
C|-------------9-----------------------9-| 
G|-----9---------------9-------9---------| 
C|-9-------9-------9-------9-------9-----| 

D|-----------------------------------------------| 
A|-----------------------------------------------| 
F|-----------------------------------------------| 
C|-------------2-----------------------2---------| 
G|-----2---------------2-------2---------------2-| 
C|-2-------2-------2-------2-------2-------2-----| 

D|---------------------------------------| 
A|---------------------------------------| 
F|---------------------------------------| 
C|-------------------------------------4-| 
G|---------------------2---1---2---4-----| 
C|-4---6---8---6---8---------------------| 

Outro 
D|-----------------------------------------------| 
A|-----------------------------------------------| 
F|-----------------------------------------------| 
C|-9----------4----------9----------2-----4------| 
G|-9----------4----------9----------2-----4------| 
C|-9----------4----------9----------2-----4------| 

D|-----------------------------------------------| 
A|-0---0---0---0---0---0---0---0---0---0---0---0-| 
F|-----------------------------------------------| 
C|-----------------------------------------------| 
G|-----------------------------------------------| 
C|-----------------------------------------------| 

D|-----------------------------------------------| 
A|-5---5---5---4---4---4---2---2---2---0---0---0-| 
F|-----------------------------------------------| 
C|-----------------------------------------------| 
G|-----------------------------------------------| 
C|-----------------------------------------------| 

D|-----------------------------------------------| 
A|-----------------------------------------------| 
F|-3---3---3---3---3---3---3---3---3---3---3---3-| 
C|-----------------------------------------------| 
G|-----------------------------------------------| 
C|-----------------------------------------------| 

D|-----------------------------------------------| 
A|-4---4---4---5---5---5---2---2---2---4---4---4-| 
F|-----------------------------------------------| 
C|-----------------------------------------------| 
G|-----------------------------------------------| 
C|-----------------------------------------------| 

D|-----------------------------------------------| 
A|-0---0---0---0---0---0---0---0---0---0---0---0-| 
F|-----------------------------------------------| 
C|-----------------------------------------------| 
G|-----------------------------------------------| 
C|-----------------------------------------------| 

D|-----------------------------------------------| 
A|-5---5---5---4---4---4---7---7---7---4---4---4-| 
F|-----------------------------------------------| 
C|-----------------------------------------------| 
G|-----------------------------------------------| 
C|-----------------------------------------------| 

D|-----------------------------------------------| 
A|-5---5---5---5---5---5---7---7---7---7---7---7-| 
F|-----------------------------------------------| 
C|-----------------------------------------------| 
G|-----------------------------------------------| 
C|-----------------------------------------------| 

D|-----------------------------------------------------------| 
A|-11---11---11---11---11---11---12---12---12---12---12---12-| 
F|-----------------------------------------------------------| 
C|-----------------------------------------------------------| 
G|-----------------------------------------------------------| 
C|-----------------------------------------------------------| 


*************************** 

|   PM   =   Palm Mute 

*************************** 
  

top 5 | avatar
top rock'n roll
Outras músicas do artista letras do(a) Avatar
Top cifras »Top artistas »
Petaxxon Comunicação Online
Cifras.com.br - Melhor e mais completo site de cifras e tablaturas do Brasil
Mais de 1 milhão de acordes de músicas cadastradas desde 2003
As informações contidas no nosso site são colaborações de seus usuários e podem conter erros, sendo assim, não nos responsabilizamos sobre nenhuma destas.
close
menos
mais
close
Cor dos acordes:

Cor da letra:

 

save
close
close
 
redimensionar