Cifras e Tablaturas
Avenged Sevenfold

Avenged Sevenfold

The Stage

Cifras Cancelar Versão de Impressão
cifras

Avenged Sevenfold - The Stage

fixar na tela  
Exibindo: vídeo-aula ver clipes redimensionar
  
 ( E5 C5 A5 B5 ) 

     

          E5    C5       A5      B5 
   e|---------------------------------------| 
   B|---------------------------------------| 
   G|---------------------------------------|  
   D|-2-----5--------2-------4--------------| 
   A|-2-----3--------0-------2--------------|  
   D|-2-------------------------------------| 



Intro SOLO ( 00:36 - 01:36 ) 

Parte 1  
   TAPPING 

E|----------------------------------------------| 
B|----------------------------------------------| 
G|-p9h11h16-p9h11h16-p9h11h16-p9h11h16-p9h11h16-| 
D|----------------------------------------------| 
A|----------------------------------------------| 
D|----------------------------------------------| 


E|----------------------------------------------| 
B|----------------------------------------------| 
G|-p9h12h17-p9h12h17-p9h12h17-p9h12h17-p9h12h17-| 
D|----------------------------------------------| 
A|----------------------------------------------| 
D|----------------------------------------------| 


E|----------------------------------------------| 
B|----------------------------------------------| 
G|-p9h14h17-p9h14h17-p9h14h17-p9h14h17-p9h14h17-| 
D|----------------------------------------------| 
A|----------------------------------------------| 
D|----------------------------------------------| 


E|----------------------------------------------| 
B|----------------------------------------------| 
G|-p8h11h17-p8h11h17-p8h11h16-p8h11h16-p8h11h16-| 
D|----------------------------------------------| 
A|----------------------------------------------| 
D|----------------------------------------------| 


E|----------------------------------------------| 
B|----------------------------------------------| 
G|-p9h11h16-p9h11h16-p9h11h16-p9h11h16-p9h11h16-| 
D|----------------------------------------------| 
A|----------------------------------------------| 
D|----------------------------------------------| 


E|----------------------------------------------| 
B|----------------------------------------------| 
G|-p9h12h17-p9h12h17-p9h12h17-p9h12h17-p9h12h17-| 
D|----------------------------------------------| 
A|----------------------------------------------| 
D|----------------------------------------------| 


E|----------------------------------------------| 
B|----------------------------------------------| 
G|-p9h14h17-p9h14h17-p9h14h17-p9h14h17-p9h14h17-| 
D|----------------------------------------------| 
A|----------------------------------------------| 
D|----------------------------------------------| 


E|-----------------------------------------11h14h19p14p11----| 
B|---------------------------------------12--------------12--| 
G|-p8h11h17-p8h11h17-p8h11h16-p8h11h16-11--------------------| (Repete 4x Toda Parte 1) 
D|-----------------------------------------------------------| 
A|-----------------------------------------------------------| 
D|-----------------------------------------------------------| 


Parte 2 

E|---17-21-17----------------------------------------------------15h19p15-------------------| 
B|------------18-22-18----18-----------------------------------17--------17-----------------| 
G|----------------------- ---17--17--------------------------16------------16-17-19b21r19b21| 
D|----------------------------------17---------------------17-------------------------------| 
A|------------------------------------19-14-15-17-15-17-19----------------------------------|  
D|------------------------------------------------------------------------------------------| 


VERSO 

Ritmo:  

       E5                D#5 
E|---------------------------------------------------------| 
B|---------------------------------------------------------| 
G|---------------------------------------------------------| 
D|-2-----2---------------1-----1---------------------------| 
A|-2-----2---------------1-----1---------------------------|  
D|-2-x-x-2-2-2-2h5p2-x-x-1-x-x-1-1-1-1h4p1-----------------| 



(riff1  * = abafado ) 

E|---------------------------------------------------------------| 
B|---------------------------------------------------------------| 
G|---------------------------------------------------------------| 
D|--4~---------4------5-----5-4~-------4-------5-------2---------| 
A|--2~---------2------3-----3-2~-------2-------3-------2---------| 
D|-------2-4-5---2-4-5--2-4-------2-4-5---2-4-5--2-5-4-2---------| 

         * * *   * * *  * *       * * *   * * *  * * * 

Refrao1 

E5                    F5 
Who is the crowd that peers through the cage 

D5                   B5 
As we perform here upon the stage? 

( Synyster Gates ) 

E|--------------------------------------------------------| 
B|-5--7-8----6--8-10------------------------------------| 
G|------------------------7--9-10----8--9--11-----------| 
D|--------------------------------------------------------| 
A|--------------------------------------------------------| 
D|--------------------------------------------------------| 


( Zacky V.) 

           E5    F5   D5  B5 
D|--------------------------| 
B|--------------------------| 
G|--------------------------| 
D|-----2~----3~---0~--4~----| 
A|-----2~----3~---0~--2~----| 
D|-----2~----3~---0~--------| 


( Zacky V.) 

           E5    F5   D5  B5  E5    F5   D5  B5 
D|-------------------------------------------| 
B|-------------------------------------------| 
G|-------------------------------------------| 
D|-----2~----3~---0~--4~--2~----3~---0~--4~--| 
A|-----2~----3~---0~--2~--2~----3~---0~--2~--| 
D|-----2~----3~---0~------2~----3~---0~------| 


(Synyster Gates) 

E|--------------------------------------------------------| 
B|-/5--7-8----/6--8-10------------------------------------| 
G|------------------------/7--9-10----/8--9--11-----------| 
D|--------------------------------------------------------| 
A|--------------------------------------------------------| 
D|--------------------------------------------------------| 


E|--------------------------------------------------------| 
B|--/5-5/7h8p7h8p75--/7-8-6-6/8h10p8h10p86--6-5-6-5-----| 
G|----------------------------------------------------7---| 
D|--------------------------------------------------------| 
A|--------------------------------------------------------| 
D|--------------------------------------------------------| 

                                   

E|------------------------------------| 
B|------------------------------------| 
G|-7/9h10p9h10p97--7-5-7-5-4---------| 
D|------------------------------------| 
A|------------------------------------| 
D|------------------------------------| 


SOLO 1 

(Synyster Gates) 

E|---------------------------------------------------------------------------------| 
B|---------------------------------------------------------------------------------| 
G|-4h5p4h5p4h5p4---8h9p8h9p8h9p8---11h12p11h12p11gh12p11---16h17p16h17p1616161612-| 
D|---------------------------------------------------------------------------------| 
A|---------------------------------------------------------------------------------| 
D|---------------------------------------------------------------------------------| 


E|----------12----12-15-12-15/19--19p15----------------------------------| 
B|-------------------------------------17--------------------------------| 
G|-16-12-16----16------------------------16------16-19-17b19-16h17p16-14-| 
D|-----------------------------------------17--17------------------------| 
A|-------------------------------------------19--------------------------| 
D|-----------------------------------------------------------------------| 


E|---------------------------------------------------------------------| 
B|----15---17-17b18r17-15--------------------------------14-15-16------| 
G|-14---14----------------14-----13-14-15-16-----15-16-17--------------| 
D|----------------------------/16--------------16----------------------| 
A|---------------------------------------------------------------------| 
D|---------------------------------------------------------------------| 


E|---------------11-12-13-/14------14-15-16-/17-15-15b17--14h15p14----| 
B|------15-16-17-----------------17--------------------------------17-| 
G|--------------------------------------------------------------------| 
D|--/16-----------------------/16-------------------------------------| 
A|--------------------------------------------------------------------| 
D|--------------------------------------------------------------------| 


E|----------15-19b20-20b22r20---17p13-----------------------------------------------------------| 
B|--------17-------------------------17p13-10--13/1513--10/1310-8h10p8------------------------| 
G|------16---------------------------------------------------------------10/1210-7h10p7--------| 
D|-14/17----------------------------------------------------------------------------------------| 
A|----------------------------------------------------------------------------------------------| 
D|----------------------------------------------------------------------------------------------| 


E|----------------------------------------------------------------------------------------------| 
B|------------------------------------------------------------------12-13p12-1110----10-11-12--| 
G|------------------------------------------------------11-12p11-12----------------13-----------| 
D|-10/1210-7h10p7-5h7p5----------7-8-9--11-12-13p12-13-----------------------------------------| 
A|-----------------------8-7-8-6----------------------------------------------------------------| 
D|----------------------------------------------------------------------------------------------| 


E|-----/14~-/14~-/17~-17p14---------------11-11p8-----------5----------------| 
B|-/16~--------------------16-----------13-------10--------7------8~---------| 
G|---------------------------17p1411h14-----------11p85h8------------------| 
D|---------------------------------------------------------------------------| 
A|---------------------------------------------------------------------------| 
D|---------------------------------------------------------------------------| 


(Zacky V.) 
Base :E5 F5 D5 B5 E5 F5 D5 B5 (Riff 1) 


          E5   F5  D5  B5 
D|----------------------| 
B|----------------------| 
G|----------------------| 
D|-----2----3---0--4----| 
A|-----2----3---0--2----| 
D|-----2----3---0-------| 


 ( RIFF 1  * = abafado ) 

E|---------------------------------------------------------------| 
B|---------------------------------------------------------------| 
G|---------------------------------------------------------------| 
D|--4~---------4------5-----5-4~-------4-------5-------2---------| 
A|--2~---------2------3-----3-2~-------2-------3-------2---------| 
D|-------2-4-5---2-4-5--2-4-------2-4-5---2-4-5--2-5-4-2---------| 

         * * *   * * *  * *       * * *   * * *  * * * 

Passagem : Em D G Am G D 

(Zacky V.) 

E|-0~-2h3-3~-0~-3~-2~--53---0-0~-2h3-3~-0~-3~-2~-3-2---------| 
B|-0~-3---3~-1~-3~-3~--7---3---0~-3---3~-1~-3~-3~-----3-------| 
G|-0~-2---0~-2~-0~-2~----------0~-2---0~-2~-0~-2~-------2-----| 
D|-2~-0---0~-2~-0~-0~----------2~-0---0~-2~-0~-0~-------------| 
A|-2~-----2~-0~-2--------------2~-----2~-0~-2~----------------| 
D|------------------------------------------------------------| 


(Synyster Gates) 

E|---------------------7--------------------------| 
B|-10p8------------8----8---7h8-8~-8---8----------| 
G|-----11-7-7h9--9---9----9-7------7h9-7----------| 
D|--------------------------------------7h9-------| 
A|------------------------------------------------| 
D|------------------------------------------------| 


E|------------8---------10---------12------------------| 
B|-----10---9---10---10----10---10----10---10-7--8-7---| 
G|-7/9----9--------9----------9----------9----------7--| 
D|---------------------------------------------------7-| 
A|-----------------------------------------------------| 
D|-----------------------------------------------------| 



SOLO 2 

(Synyster Gates) 
                                          H.v 

E|------------------------------------------v----------| 
B|-10b12r11b12r10p8-7-----------------------v----------| 
G|---------------------7/9--74-742-2p0-5-v----------| 
D|-----------------------------------------------------| 
A|-----------------------------------------------------| 
D|-----------------------------------------------------| 

                                          H.A.  

E|--------------------------------------------------------------| 
B|-----------5-5----5-8-8b10r8-8p5-7~--7b8-7----------8---------| 
G|----5-5--------5-------------------------------/7-9---10b12r8-| 
D|-/7-----7-----------------------------------------------------| 
A|--------------------------------------------------------------| 
D|--------------------------------------------------------------| 


E|--------------------------------------------------------------| 
B|--------11p10-10b11----------11h13-13b15-15r13p10-15b16----11-| 
G|--------------------12p10h12----------------------------11----| 
D|--10/12---------------------------------------------/12-------| 
A|--------------------------------------------------------------| 
D|--------------------------------------------------------------| 


E|-13-13b15-15r13p11--------------------------------------------| 
B|--------------------------------------------------------------| 
G|----------------10-10b12-12r10p87--8b10--/12-12p10-105--5/8-| 
D|--------------------------------------------------------------| 
A|--------------------------------------------------------------| 
D|--------------------------------------------------------------| 


E|------------------------------------------------| 
B|------------------------------------------------| 
G|-87-7~-5/7-75p3--5-5b7r5p3--32-3~-2----------| 
D|---------------------------------------5p4-4b5--| 
A|------------------------------------------------| 
D|------------------------------------------------| 


E|----------------------6-10-6---6-10-10b11r10----| 
B|--------------8-8---8--------8------------------| 
G|-------7----7-----7-----------------------------| 
D|-----8----8-------------------------------------| 
A|-/10--------------------------------------------| 
D|------------------------------------------------| 


E|------11-13-13b15-15r13p11------11-13~----13-15-| 
B|----11--------------------13--13--------13------| 
G|-/12------------------------14--------14--------| 
D|------------------------------------------------| 
A|------------------------------------------------| 
D|------------------------------------------------| 

                              H.A. 

E|-15b17-15b17r15p13-13h15-14-14---14-15-17~-17-18-20~-18p1718~-| 
B|---------------------------------------------------------------| 
G|---------------------------------------------------------------| 
D|---------------------------------------------------------------| 
A|---------------------------------------------------------------| 
D|---------------------------------------------------------------| 


(Zacky V.) 

BASE (4:55 - 5:24) 

            G5       Eb/G    F/A     D/F# 
D|---------------------------------------------| 
B|---------------------------------------------| 
G|---------------------------------------------| 
D|------5---------8-------10------7------------| 
A|------5---------6-------8-------5------------| 
D|------5---------5-------7-------4------------| 

Verso 2 (Synyster Gates) 
(5:36) 

E|---------------------------------------------------------------------------------| 
B|-----8-10-/13-11-10-11~~-11-11-13-15-16~~-16-------16-18~~-1813-13/16--15~~10--| 
G|-/10-----------------------------------------17-15-------------------------------| 
D|---------------------------------------------------------------------------------| 
A|---------------------------------------------------------------------------------| 
D|---------------------------------------------------------------------------------| 


E|-----------------6-10p6-----6-10p6-----6-10p6-----6-11p6-----6-11p6-----6-| 
B|-10/13-13-11~~-8-------8---8------8---8------8---8------8---8------8---8--| 
G|------------------------7-7--------7-7--------7-7--------8-8--------8-8---| 
D|-------------------------8----------8----------8----------8----------8----| 
A|--------------------------------------------------------------------------| 
D|--------------------------------------------------------------------------| 


E|-11p6-----6-11p6-----6-13p8----------8-13p8----------8-13p8----------8---| 
B|-----8---8------8---8------10------10------10------10------10------10----| 
G|------8-8--------8-8---------10--10----------10--10----------10--10------| 
D|-------8----------8------------10--------------10--------------10--------| 
A|-------------------------------------------------------------------------| 
D|-------------------------------------------------------------------------| 


E|-13p8----------8-13p8----------8-14p10----------10-14p10----------10-----| 
B|-----10------10------10------10-------10------10--------10------10-------| 
G|-------10--10----------10--10-----------11--11------------11--11---------| 
D|---------10--------------10---------------12----------------12-----------| 
A|-------------------------------------------------------------------------| 
D|-------------------------------------------------------------------------| 


E|-14p10----------10-14p10----------10-15p10----------10-15p10----------10-| 
B|------10------10--------10------10--------11------11--------11------11---| 
G|--------11--11------------11--11------------12--12------------12--12-----| 
D|----------12----------------12----------------12----------------12-------| 
A|-------------------------------------------------------------------------| 
D|-------------------------------------------------------------------------| 


E|-15p10----------10-15p10----------10-15p11----------11-15p11----------11-| 
B|------11------11--------11------11--------11------11--------11------11---| 
G|--------12--12------------12--12------------12--12------------12--12-----| 
D|----------12----------------12----------------13----------------13-------| 
A|-------------------------------------------------------------------------| 
D|-------------------------------------------------------------------------| 


E|-15p11----------11-15p11----------11-17p13----------13-17p13----------13-| 
B|------11------11--------11------11--------13------13--------13------13---| 
G|--------12--12------------12--12------------14--14------------14--14-----| 
D|----------13----------------13----------------15----------------15-------| 
A|-------------------------------------------------------------------------| 
D|-------------------------------------------------------------------------| 


E|-17p13----------13-17p13----------13-17p14----------14-17p14----------14-| 
B|------13------13--------13------13--------15------15--------15------15---| 
G|--------14--14------------14--14------------14--14------------14--14-----| 
D|----------15----------------15----------------16----------------16-------| 
A|-------------------------------------------------------------------------| 
D|-------------------------------------------------------------------------| 


E|-20p17------------17-20p17-----------------| 
B|------19--------19--------19---------------| 
G|--------20-17-20------------20-17--17-20---| 
D|---------------------------------19--------| 
A|-------------------------------------------| 
D|-------------------------------------------| 


SOLO 3  
(ZackyV.) Base : E5 D#5 (8X) B5 (Riff 1) 


       E5                D#5 
E|---------------------------------------------------------| 
B|---------------------------------------------------------| 
G|---------------------------------------------------------| 
D|-2-----2---------------1-----1---------------------------| 
A|-2-----2---------------1-----1---------------------------|  
D|-2-x-x-2-2-2-2h5p2-x-x-1-x-x-1-1-1-1h4p1-----------------| 


 ( RIFF 1  * = abafado ) 

E|---------------------------------------------------------------| 
B|---------------------------------------------------------------| 
G|---------------------------------------------------------------| 
D|--4~---------4------5-----5-4~-------4-------5-----------------| 
A|--2~---------2------3-----3-2~-------2-------3-----------------| 
D|-------2-4-5---2-4-5--2-4-------2-4-5---2-4-5--2-5-4-----------| 



(Synyster Gates) 

E|------------18p15----------15-18p15------15-18p15------15-------------| 
B|-15b17~-17-------16------16--------16--16--------16--16---15b17~-17---| 
G|-------------------15--15------------15------------15-----------------| 
D|---------------------17-----------------------------------------------| 
A|----------------------------------------------------------------------| 
D|----------------------------------------------------------------------| 


E|-18p15----------15-18p15------15-18p15------15-19p15----------15-19p15------15---| 
B|------16------16--------16--16--------16--16--------17------17--------17--17-----| 
G|--------15--15------------15------------15------------16--16------------16-------| 
D|----------17--------------------------------------------17-----------------------| 
A|---------------------------------------------------------------------------------| 
D|---------------------------------------------------------------------------------| 


E|-19p15------15-18p15----------15-18p15------15-18p15------15-19p15----------15---| 
B|------17--17--------16------16--------16--16--------16--16--------17------17-----| 
G|--------16------------15--15------------17------------17------------16--16-------| 
D|------------------------17--------------------------------------------17---------| 
A|---------------------------------------------------------------------------------| 
D|---------------------------------------------------------------------------------| 


E|-19p15------15-19p15------15-18p15----------15-18p15------------18b20-20r18-/19--| 
B|------17--17--------17--17--------16------16--------16------16-------------------| 
G|--------16------------16------------15--15------------15--15--15-----------------| 
D|--------------------------------------17----------------17-----------------------| 
A|---------------------------------------------------------------------------------| 
D|---------------------------------------------------------------------------------| 


                                (You do know this is just a simulation, don't you?) 

E|-19-19-19b20-19-19-19b20r1914-17-14---------------------11-14-11----------------| 
B|------------------------------------16-----------------13--------13--------------| 
G|--------------------------------------17-14-1714-11-14------------14-11-14-11---| 
D|---------------------------------------------------------------------------------| 
A|---------------------------------------------------------------------------------| 
D|---------------------------------------------------------------------------------| 


E|------------------------------------------| 
B|------------------------------------------| 
G|-/11-8--8---------------------------------| 
D|------10-10-7-10-7-7----------------------| 
A|------------------9-7-6-9-6-3-6-3-0-------| 
D|------------------------------------------| 



Refrao 3 

(Synyster Gates) 

E|--------------------------------------------------------| 
B|-/5--7-8----/6--8-10------------------------------------| 
G|------------------------/7--9-10----/8--9--11-----------| 
D|--------------------------------------------------------| 
A|--------------------------------------------------------| 
D|--------------------------------------------------------| 


E|--------------------------------------------------------| 
B|--/5-5/7h8p7h8p75--/7-8-6-6/8h10p8h10p86--6-5-6-5-----| 
G|----------------------------------------------------7---| 
D|--------------------------------------------------------| 
A|--------------------------------------------------------| 
D|--------------------------------------------------------|                                     

                                         (SOLO FINAL) 

E|--------------------------------------|-----7---7-12-7-12/15-| 
B|--------------------------------------|---8---8--------------| 
G|-7/9h10p9h10p97--7-5-7-5-4--/8-/11-11|-9--------------------| 
D|--------------------------------------|----------------------| 
A|--------------------------------------|----------------------| 
D|--------------------------------------|----------------------| 


E|-14p15p14-12----------------------8-13-8-13/17-15h17p15-| 
B|-------------12----------12----10-----------------------| 
G|----------------12----12----10--------------------------| 
D|-------------------14-----------------------------------| 
A|--------------------------------------------------------| 
D|--------------------------------------------------------| 


E|-15-13h15p13-12-13-12-10----------10-12-13-12h13p12-10--| 
B|------------------------10------10----------------------| 
G|--------------------------10--10------------------------| 
D|----------------------------12--------------------------| 
A|--------------------------------------------------------| 
D|--------------------------------------------------------| 


E|-12-10h12p10-8-10-8-7-----7-11--/14-11------------------| 
B|---------------------7---7-------------13-10------10----| 
G|----------------------8-8-------------------11--11------| 
D|-----------------------9----------------------13--------| 
A|--------------------------------------------------------| 
D|--------------------------------------------------------| 


E|-----7---7-12-7-12/15-14h15p14-12----------------------8----8-13-8-13/17-| 
B|---8---8--------------------------12----------12----10---10--------------| 
G|-9-----------------------------------12----12----10----------------------| 
D|----------------------------------------14-------------------------------| 
A|-------------------------------------------------------------------------| 
D|-------------------------------------------------------------------------| 


E|-15h17p15-13-15-13h15p13-12-13-12-10----------------10-12-13-12h13p12----| 
B|-------------------------------------10----------10----------------------| 
G|----------------------------------------10----10-------------------------| 
D|-------------------------------------------12----------------------------| 
A|-------------------------------------------------------------------------| 
D|-------------------------------------------------------------------------| 


E|-12-12h13p12-8-10-8-7-----------7-11-/14-11-----------------------7---7--| 
B|----------------------7-------7-------------13-10----------10---8---8----| 
G|------------------------8---8---------------------11----11----9----------| 
D|--------------------------9--------------------------13------------------| 
A|-------------------------------------------------------------------------| 
D|-------------------------------------------------------------------------| 


E|-12-7-12/15-14h15p14-12----------------------8----8-13-8-13/17-15h17p15--| 
B|------------------------12----------12----10---10------------------------| 
G|---------------------------12----12----10--------------------------------| 
D|------------------------------14-----------------------------------------| 
A|-------------------------------------------------------------------------| 
D|-------------------------------------------------------------------------| 


E|-13-15-13h15p13-12-13-12-10----------------10-12-13-12h13p12-10-12-10h12p10-| 
B|----------------------------10----------10----------------------------------| 
G|-------------------------------10----10-------------------------------------| 
D|----------------------------------12----------------------------------------| 
A|----------------------------------------------------------------------------| 
D|----------------------------------------------------------------------------| 


E|-8-10-8-7-----------7-11-/14-11-----------------------7---7-12-17-12/15-----| 
B|----------7-------7-------------13-10----------10---8---8-------------------| 
G|------------8---8---------------------11----11----9-------------------------| 
D|--------------9--------------------------13---------------------------------| 
A|----------------------------------------------------------------------------| 
D|----------------------------------------------------------------------------| 


E|-14h15p14-12----------------------8----8-13-8-13/17-15h17p15-13-17-13h15p13-| 
B|-------------12----------12----10---10--------------------------------------| 
G|----------------12----12----10----------------------------------------------| 
D|-------------------14-------------------------------------------------------| 
A|----------------------------------------------------------------------------| 
D|----------------------------------------------------------------------------| 


E|-12-13-12-10----------------10-12-13-12h13p12-10-12-10h12p10-8-10-8-7-------| 
B|-------------10----------10-------------------------------------------7-----| 
G|----------------10----10------------------------------------------------8---| 
D|-------------------12-----------------------------------------------------9-| 
A|----------------------------------------------------------------------------| 
D|----------------------------------------------------------------------------| 


E|-----7-11--/14-11----------------------------| 
B|---7--------------13-10----------10----------| 
G|-8----------------------11----11-------------| 
D|---------------------------13----------------| 
A|---------------------------------------------| 
D|---------------------------------------------| 


( Final CLean ) 

(Zacky V.) 

(7:53 - 8:21) 

E|-0--------0---------------0-------------0--------0--------0-------0-------| 
B|-0----0-----0-----0-------0-------0-------0------3----3-----3-------3-----| 
G|-0--0---0-----0-----0---0-2-----2---2-------2----2--2---2-----2-------2---| 
D|-2--------------2-----2---3---3-------3----------3----------------------3-| 
A|-2------------------------3-------------------3--5------------------------| 
D|--------------------------------------------------------------------------| 


E|-0-------0-0-----2---------------0~~-----------| 
B|---3-----0---0-------0-----------0~~-----------| 
G|-----2---2-----2---2-----2-------0~~-----------| 
D|---------1-------------1-----1---2~~-----------| 
A|-------5-2-----------------2---2-2~~-----------| 
D|-----------------------------------------------| 



(Synyster Gates) 

(8:03 - 8:30 ) 

E|-11--11-------------------------------------------------------------------| 
B|-12----13--13--------------------------12-12-12--12--12--13--15~p13h15p13-| 
G|-11------14--14-11-14-11-------11--12~-12-12-12--12--12--14---------------| 
D|------------------------13-9-13----14~------------------------------------| 
A|--------------------------------------------------------------------------| 
D|--------------------------------------------------------------------------| 

                                                   (Harmonicos Naturais) 

E|-----------------13--12--------11--------14-----|-------12-------24--------| 
B|-----13-13-15-17-15-----15-----12-----12----13~-|----12-------24-----------| 
G|---14------------14--------14--11--14-----------|-12-------24--------------| 
D|-15---------------------------------------------|--------------------------| 
A|------------------------------------------------|--------------------------| 
D|------------------------------------------------|--------------------------| 
  

cifra enviadasem correções
enviado porenviada por:marcnagel
top 5 | avenged sevenfold
top heavy metal
Outras músicas do artista letras do(a) Avenged Sevenfold
Top cifras »Top artistas »
Petaxxon Comunicação Online
Cifras.com.br - Melhor e mais completo site de cifras e tablaturas do Brasil
Mais de 1 milhão de acordes de músicas cadastradas desde 2003
As informações contidas no nosso site são colaborações de seus usuários e podem conter erros, sendo assim, não nos responsabilizamos sobre nenhuma destas.
close
menos
mais
close
Cor dos acordes:

Cor da letra:

 

save
close
close
 
redimensionar