Cifras e Tablaturas
Avenged Sevenfold

Avenged Sevenfold

This Means War

Cifras Cancelar Versão de Impressão
cifras

Avenged Sevenfold - This Means War

fixar na tela  
Exibindo: vídeo-aula ver clipes redimensionar

Tom:

  
Tuning: D A D G B e  

Intro Guitar 1  

----------------------------------------------------------------  
-8-8-11-8--8-8-10-8--8-8-11-8-11/13-13-11-10-8------------------  
----------------------------------------------------------------  
----------------------------------------------------------------  
----------------------------------------------------------------  
----------------------------------------------------------------  


----------------------------------------------------------------  
-8-11-8--8-8-10-8--8-8-11-8-11/13-13-11-10-8-10-10~-------------  
----------------------------------------------------------------  
----------------------------------------------------------------  
----------------------------------------------------------------  
----------------------------------------------------------------  


Intro Guitar 2  


-6-6-10-6--6-6-8-6--6-6-10-6-10/11-11-10-8-6--------------------  
----------------------------------------------------------------  
----------------------------------------------------------------  
----------------------------------------------------------------  
----------------------------------------------------------------  
----------------------------------------------------------------  



-6-10-6--6-6-8-6--6-6-10-6-10/11-11-10-8-6-6--------------------  
----------------------------------------------------------------  
----------------------------------------------------------------  
----------------------------------------------------------------  
----------------------------------------------------------------  
----------------------------------------------------------------  



-10-6--6-6-8-6--6-6-10-6-10/11-11-10-8-6-8-8~-------------------  
----------------------------------------------------------------  
----------------------------------------------------------------  
----------------------------------------------------------------  
----------------------------------------------------------------  
----------------------------------------------------------------  



Riff  

----------------------------------------------------------------  
----------------------------------------------------------------  
----------------------------------------------------------------  
----------------------------------------5-----------------------  
-0-8-8-6h8p6p5-5-5~-0-0--8-8--6h8p6p5-5---5-0--8-8--6h8p6p5-5-5-  
-0------------------0-0---------------------0-------------------  


----------------------------------------------------------------  
----------------------------------------------------------------  
----------------------------------------------------------------  
-5---7---8------------------------------------------------------  
-3---5---6--1-1-1-3--0--8-8--6h8p6p5-5-5~-----------------------  
---0---0----1-1-1-3--0------------------------------------------  


----------------------------------------------------------------  
----------------------------------------------------------------  
----------------------------------------------------------------  
---------------------5------------------------------------------  
-0-0-8-8--6h8p6p5--5---5~--0--8-8--6h8p6p5-5-5~-----------------  
-0-0-----------------------0------------------------------------  


----------------------------------------------------------------  
----------------------------------------------------------------  
----------------------------------------------------------------  
-5---7---8------------------------------------------------------  
-3---5---6--1-1-1-3-1-------------------------------------------  
---0---0----1-1-1-3-1/\-----------------------------------------  



Verse 1  


----------------------------------------------------------------  
----------------------------------------------------------------  
----------------------------------------------------------------  
----------------------------------------------------------------  
-0--0-0-0--0-0-0--0--8-8--6h8p6p5-5-5~--------------------------  
-0--0-0-0--0-0-0--0---------------------------------------------  


----------------------------------------------------------------  
----------------------------------------------------------------  
----------------------------------------------------------------  
------------------------------------5---------------------------  
-0--0-0-0--0-0-0--0--8-8--6h8p6p5-5---5~------------------------  
-0--0-0-0--0-0-0--0---------------------------------------------  


----------------------------------------------------------------  
----------------------------------------------------------------  
----------------------------------------------------------------  
----------------------------------------------------------------  
-0--0-0-0--0-0-0--0--8-8--6h8p6p5-5~----------------------------  
-0--0-0-0--0-0-0--0---------------------------------------------  



----------------------------------------------------------------  
----------------------------------------------------------------  
----------------------------------------------------------------  
------------------------------------5---------------------------  
-0--0-0-0--0-0-0--0--8-8--6h8p6p5-5---5~------------------------  
-0--0-0-0--0-0-0--0---------------------------------------------  



Verse 2  


----------------------------------------------------------------  
----------------------------------------------------------------  
----------------------------------------------------------------  
----------------------------------------------------------------  
-1--1-1-1-1--1-1--5--5-5-5-5--5-5--0--0-0-0-0--0-0--5--5-5-7-8--  
-1--1-1-1-1--1-1--5--5-5-5-5--5-5--0--0-0-0-0--0-0--5--5-5-7-8--  


----------------------------------------------------------------  
----------------------------------------------------------------  
----------------------------------------------------------------  
----------------------------------------------------------------  
-1--1-1-1-1--1-1--5--5-5-5-5--5-5--0--0-0-0-0--0-0--1--3--1--5--  
-1--1-1-1-1--1-1--5--5-5-5-5--5-5--0--0-0-0-0--0-0--1--3--1--5--  


Riff  


-11----11----11----13-----10----10----10----11------------------  
----11----11----11----11-----11----11----11----11---------------  
----------------------------------------------------------------  
----------------------------------------------------------------  
----------------------------------------------------------------  
----------------------------------------------------------------  


-10----10----10----11----10----10----10-10/13-11----------------  
----10----10----10----10----10----10----------------------------  
----------------------------------------------------------------  
----------------------------------------------------------------  
----------------------------------------------------------------  
----------------------------------------------------------------  


----11----11----13-----10----10----10----11---------------------  
-11----11----11----11-----11----11----11----11------------------  
----------------------------------------------------------------  
----------------------------------------------------------------  
----------------------------------------------------------------  
----------------------------------------------------------------  


-10----10----10----10-----11----11----13----11------------------  
----10----10----10----10-----11----11----11----11---------------  
----------------------------------------------------------------  
----------------------------------------------------------------  
----------------------------------------------------------------  
----------------------------------------------------------------  


Solo  

----------------------------------------------------------------  
-----------13hap10--h13b15r13p10--------------------------------  
-5Ha--15ha------------------------h12p10------------------------  
----------------------------------------------------------------  
----------------------------------------------------------------  
----------------------------------------------------------------  


--------------------|------|------------------------------------  
-h13b15r13p10-------|------|-13b15r13p10h13p10------------------  
--------------12p10-|-(3X)-|-------------------h12p10-----------  
--------------------|------|--------------------------12p10-----  
--------------------|------|------------------------------------  
--------------------|------|------------------------------------  


----------------------------------------------------------------  
------------------------------6-----9---------------------------  
------------------------------8b10--11b13-----------------------  
-h12p10---------------------------------------------------------  
---------h12p10-h12p10\7\5~-------------------------------------  
----------------------------------------------------------------  


-------------10--13-12-10---------------------------------------  
----------10---------------13-12-10-----------------------------  
-------10----------------------------13-12-10-------------------  
----12----------------------------------------12-10-12/15-------  
-12-------------------------------------------------------------  
----------------------------------------------------------------  



-------13-17-16-13----------------------------------------------  
----15-------------15-14-13-------------------------------------  
-14-------------------------14-13-12----------------------------  
-------------------------------------15-12~---------------------  
----------------------------------------------------------------  
----------------------------------------------------------------  



-------------17-22-20-17----------------------------------------  
----------18-------------21-20-18-------------------------------  
-------19-------------------------19-18-17\---------------------  
----19----------------------------------------------------------  
-20-------------------------------------------------------------  
----------------------------------------------------------------  



------------------------------------8-10-11---------------------  
------------------6-10-8-6/8--10-11-----------------------------  
-10-7-10-8-7----7-----------------------------------------------  
-------------10-------------------------------------------------  
----------------------------------------------------------------  
----------------------------------------------------------------  



-11b13-10-------------------------------------------------------  
----------10b11r10-10--10-11-13--11-10-11-10--------------------  
---------------------------------------------12~----------------  
----------------------------------------------------------------  
----------------------------------------------------------------  
----------------------------------------------------------------  



-------------------13--11-10-11--------11-13-13/15~-------------  
----10-11-10----11-------------------11-------------------------  
-12----------12-------------------12----------------------------  
----------------------------------------------------------------  
----------------------------------------------------------------  
----------------------------------------------------------------  


-17b18r17--15----15-17-18--18b20r18-17~-------------------------  
--------------15------------------------------------------------  
----------------------------------------------------------------  
----------------------------------------------------------------  
----------------------------------------------------------------  
----------------------------------------------------------------  



-14-17-15-14-15-------------------------------15-17-18-17-15----  
----------------15-------------------------15-------------------  
-------------------15-14-15-14-15-15b17--x----------------------  
----------------------------------------------------------------  
----------------------------------------------------------------  
----------------------------------------------------------------  


----------------------------------------------------------------  
-18-15-18-15-16-15~---------------------------------------------  
----------------------------------------------------------------  
----------------------------------------------------------------  
----------------------------------------------------------------  
----------------------------------------------------------------  


  

top 5 | avenged sevenfold
top heavy metal
Outras músicas do artista letras do(a) Avenged Sevenfold
Top cifras »Top artistas »
Petaxxon Comunicação Online
Cifras.com.br - Melhor e mais completo site de cifras e tablaturas do Brasil
Mais de 1 milhão de acordes de músicas cadastradas desde 2003
As informações contidas no nosso site são colaborações de seus usuários e podem conter erros, sendo assim, não nos responsabilizamos sobre nenhuma destas.
close
menos
mais
close
Cor dos acordes:

Cor da letra:

 

save
close
close
 
redimensionar