Cifras e Tablaturas
Aventura

Aventura

Dile Al Amor

Cifras Cancelar Versão de Impressão

Aventura - Dile Al Amor

Tom:

  			Intro - G1 

|----------------------------------------------------| 
|----------------------------------------------------| 
|--------3-3h4p3----4/6------3h4p3-------------------| 
|-6-6-6----------6--------6---------6-6/8--86--6p4~--| 
|----------------------------------------------------| 
|----------------------------------------------------| 


Intro - G2 

|-----7------------7------------6------| 
|---9------9------------9-----7------7-| 
|-8------8---8---9----9-----6------6---| 
|--------------------------------------| 
|--------------------------------------| 
|--------------------------------------| 


Solo Intro - Guitar 2 

|-7p6-7p6-7p6-7p6-7p6-7p6-7p6-7p6----7/14-| 
|---------------------------------7-------| 
|-----------------------------------------| 
|-----------------------------------------| 
|-----------------------------------------| 
|-----------------------------------------| 


Verse 

|-9-----9--7-----7--6-| 
|----7--------7-------| 
|---------------------| 
|---------------------| 
|---------------------| 
|---------------------| 


Chorus 

|-----7-----------------6--7p6----------7---------6---| 
|---9---9---9---9-----7--------7------7---7-----7---7-| 
|-9-------9---9-----6------------6--8---------6-------| 
|-----------------------------------------------------| 
|-----------------------------------------------------| 
|-----------------------------------------------------| 

|-----7---9p7-----| 
|---9---9-----9---| 
|-8-------------8-| 
|-----------------| 
|-----------------| 
|-----------------| 

|-----7-----------------6--7p6----------7---------6---| 
|---9---9---9---9-----7--------7------7---7-----7---7-| 
|-9-------9---9-----6------------6--8---------6-------| 
|-----------------------------------------------------| 
|-----------------------------------------------------| 
|-----------------------------------------------------| 

|-----7---9p7-----| 
|---9---9-----9---| 
|-8-------------8-| 
|-----------------| 
|-----------------| 
|-----------------| 

|-----7-----------------6--7p6----------7---------6-------7-9p7--| 
|---9---9---9---9-----7--------7------7---7-----7---7---9-------9| 
|-9-------9---9-----6------------6--8---------6-------8----------| 
|----------------------------------------------------------------| 
|----------------------------------------------------------------| 
|----------------------------------------------------------------| 



Solo 

|------------------------------------------------------| 
|------------------------------------------------------| 
|-6h7-7-7-7-7--7-7-7-7--7-7-7--6--7p6-------6-7--4h6p4-| 
|-------------------------------------9-7-9------------| 
|------------------------------------------------------| 
|------------------------------------------------------| 

|--------------------------------------------------------| 
|-----------------------------------------------8-7p5----| 
|-6h7-7-7-7-7--7-7-7-7--7-7-9--6--7p6--6-6-7-9---------7-| 
|--------------------------------------------------------| 
|--------------------------------------------------------| 
|--------------------------------------------------------| 

|---------------------------------------------------------| 
|-6/7-7-7-7-7--7-7-7p5----5--7-7--8p7-5-5-7--8p7-7-7p5----| 
|-----------------------7-------------------------------7-| 
|---------------------------------------------------------| 
|---------------------------------------------------------| 
|---------------------------------------------------------| 

|----------------------------------------------------------| 
|-10p7---7---7----8---8---8-7---5--6p5-5---------8-7p5-----| 
|------7---7----9---9---9-----------------4-6-7---------7~-| 
|----------------------------------------------------------| 
|----------------------------------------------------------| 
|----------------------------------------------------------| 


Chorus 2 

 4x       4x        2x        2x        4x 
|--7---7-|---6---6-|---7---7-|---6---6-|----7---7-| 
|9---9---|-7---7---|-7---7---|-7---7---|--9---9---| 
|--------|---------|---------|---------|----------| 
|--------|---------|---------|---------|----------| 
|--------|---------|---------|---------|----------| 
|--------|---------|---------|---------|----------| 

|-----7----------------6-7p6----------7--------6-------7---9p7---| 
|---9---9---9---9----7-------7------9---9----7---7---9---9-----9-| 
|-9-------9---9----6-----------6--8--------6-------8-------------| 
|----------------------------------------------------------------| 
|----------------------------------------------------------------| 
|----------------------------------------------------------------| 

 4x       4x        2x        2x        4x 
|--7---7-|---6---6-|---7---7-|---6---6-|----7---7-|---| 
|9---9---|-7---7---|-7---7---|-7---7---|--9---9---|-9-| 
|--------|---------|---------|---------|----------|---| 
|--------|---------|---------|---------|----------|---| 
|--------|---------|---------|---------|----------|---| 
|--------|---------|---------|---------|----------|---| 


Final 

|--------9----------7----------6----------6---| 
|------9---9------7---7------7---7------7---7-| 
|----9----------8----------6----------6-------| 
|-11----------9----------8----------8---------| 
|---------------------------------------------| 
|---------------------------------------------| 

    	
fixar
fixar inscrever-se

enviado porenviado por: adalgomes
cifra enviadaCorrigida por: Teusalves
logo top cifrasComente
ico música do artistaMúsicas deste artista
ico curtiuCurtiu?
ico destaqueDestaque
Petaxxon Comunicação Online

Cifras.com.br - Melhor e mais completo site de cifras e tablaturas do Brasil Mais de 1 milhão de acordes de músicas cadastradas desde 2003
As informações contidas no nosso site são colaborações de seus usuários e podem conter erros, sendo assim, não nos responsabilizamos sobre nenhuma destas.

close
menos
mais
close
Cor dos acordes:

Cor da letra:

close
Alinhar acordes a direita Alinhar acordes a esquerda Alinhar acordes em baixo Alinhar acordes no topo
close
  Mostrar todos os acordes Esconder acordes muito fáceis Esconder acordes fáceis Esconder acordes intermediários
redimensionar
glossário