Cifras e Tablaturas
Aviators

Aviators

Zero

Cifras Cancelar Versão de Impressão

Aviators - Zero

Tom:

  			Intro 
e|-------------------------------0--0--0--0----------------------------------| 
B|---1--1--1--1----0--0--0--0-------------------1--1--1--2-------------------| 
G|---------------------------------------------------------------------------| 
D|---------------------------------------------------------------------------| 
A|-0--0--0--0------------------3--3--3--3------------------------------------| 
E|---------------3--3--3--3-------------------1--1--1--2---------------------| 

e|-------------------------------0--0--0--0----------------------------------| 
B|---1--1--1--1----0--0--0--0-------------------1--1--1--2-------------------| 
G|---------------------------------------------------------------------------| 
D|---------------------------------------------------------------------------| 
A|-0--0--0--0------------------3--3--3--3------------------------------------| 
E|---------------3--3--3--3-------------------1--1--1--2---------------------| 
    	
fixar
fixar inscrever-se

enviado porenviado por: alyslima
cifra enviadaCorrigida por: sem correções
logo top cifrasComente
ico música do artistaMúsicas deste artista
ico curtiuCurtiu?
ico destaqueDestaque
Petaxxon Comunicação Online

Cifras.com.br - Melhor e mais completo site de cifras e tablaturas do Brasil Mais de 1 milhão de acordes de músicas cadastradas desde 2003
As informações contidas no nosso site são colaborações de seus usuários e podem conter erros, sendo assim, não nos responsabilizamos sobre nenhuma destas.

close
menos
mais
close
Cor dos acordes:

Cor da letra:

close
Alinhar acordes a direita Alinhar acordes a esquerda Alinhar acordes em baixo Alinhar acordes no topo
close
  Mostrar todos os acordes Esconder acordes muito fáceis Esconder acordes fáceis Esconder acordes intermediários
redimensionar
glossário