Cifras e Tablaturas
Avion Roe

Avion Roe

June

Cifras Cancelar Versão de Impressão

Avion Roe - June

Tom: D

  			
Intro 
e|---------------------------------------------------------------------------------| 
B|-7----8-7--3---------------------------------------------------------------------| 
G|-----------------0-----0---------------------------------------------------------| 
D|---------------0-----0-----------------------------------------------------------| 
A|-------------7-----3-------------------------------------------------------------| 
E|---------------------------------------------------------------------------------| (x2) 

Verse 
  "This cut deeper than I thought..." 
e|---------------------------------------------------------------------------------| 
B|-7----8-7--3---------------------------------------------------------------------| 
G|-----------------0-----0---------------------------------------------------------| 
D|---------------0-----0-----------------------------------------------------------| 
A|-------------7-----3-------------------------------------------------------------| 
E|---------------------------------------------------------------------------------| (x2) 

  "Hear me in this free fall drown..." 
e|---------------------------------------------------------------------------------| 
B|---------------------------------------------------------------------------------| 
G|-4----5-4-0-----0-----0----------------------------------------------------------| 
D|--------------0-----0------------------------------------------------------------| 
A|------------3-----2--------------------------------------------------------------| 
E|---------------------------------------------------------------------------------| (x2) 

  "Shy love with nothing to hide from..." 
e|---------------------------------------------------------------------------------| 
B|-7----8-7--3---------------------------------------------------------------------| 
G|-----------------0-----0---------------------------------------------------------| 
D|---------------0-----0-----------------------------------------------------------| 
A|-------------7-----3-------------------------------------------------------------| 
E|---------------------------------------------------------------------------------| (x2) 

  "Tell you that I've let you in..." 
e|---------------------------------------------------------------------------------| 
B|---------------------------------------------------------------------------------| 
G|-4----5-4-0-----0-----0----------------------------------------------------------| 
D|--------------0-----0------------------------------------------------------------| 
A|------------3-----2--------------------------------------------------------------| 
E|---------------------------------------------------------------------------------| (x2) 

Chorus 
e|---------------------------------------------------------------------------------| 
B|---------------------------------------------------------------------------------| 
G|-------7---------7---------------------------------------------------------------| 
D|---7-------7---7-----------------------------------------------------------------| 
A|-5---5---5---5-------------------------------------------------------------------| 
E|---------------------------------------------------------------------------------| (x4) 

e|---------------------------------------------------------------------------------| 
B|---------------------------------------------------------------------------------| 
G|-------5---------5---------------------------------------------------------------| 
D|---5-------5---5-----------------------------------------------------------------| 
A|-3---3---3---3-------------------------------------------------------------------| 
E|---------------------------------------------------------------------------------| (x4) 

e|---------------------------------------------------------------------------------| 
B|---------------------------------------------------------------------------------| 
G|-----------0---------------------------------------------------------------------| 
D|-----7---7-----------------------------------------------------------------------| 
A|---7---7-------------------------------------------------------------------------| 
E|-5-------------------------------------------------------------------------------| (x4) 

e|---------------------------------------------------------------------------------| 
B|-----------0---------------------------------------------------------------------| 
G|-----7---7-----7-----------------------------------------------------------------| 
D|---7---7-----7-------------------------------------------------------------------| 
A|-5-------------------------------------------------------------------------------| 
E|---------------------------------------------------------------------------------|  

Verse 
e|---------------------------------------------------------------------------------| 
B|-7----8-7--3---------------------------------------------------------------------| 
G|-----------------0-----0---------------------------------------------------------| 
D|---------------0-----0-----------------------------------------------------------| 
A|-------------7-----3-------------------------------------------------------------| 
E|---------------------------------------------------------------------------------| (x4) 

e|---------------------------------------------------------------------------------| 
B|---------------------------------------------------------------------------------| 
G|-4----5-4-0-----0-----0----------------------------------------------------------| 
D|--------------0-----0------------------------------------------------------------| 
A|------------3-----2--------------------------------------------------------------| 
E|---------------------------------------------------------------------------------| (x2) 

e|---------------------------------------------------------------------------------| 
B|-7----8-7--3---------------------------------------------------------------------| 
G|-----------------0-----0---------------------------------------------------------| 
D|---------------0-----0-----------------------------------------------------------| 
A|-------------7-----3-------------------------------------------------------------| 
E|---------------------------------------------------------------------------------| (x2) 

e|---------------------------------------------------------------------------------| 
B|---------------------------------------------------------------------------------| 
G|-4----5-4-0-----0-----0----------------------------------------------------------| 
D|--------------0-----0------------------------------------------------------------| 
A|------------3-----2--------------------------------------------------------------| 
E|---------------------------------------------------------------------------------| (x2) 

Chorus 
e|---------------------------------------------------------------------------------| 
B|---------------------------------------------------------------------------------| 
G|-------7---------7---------------------------------------------------------------| 
D|---7-------7---7-----------------------------------------------------------------| 
A|-5---5---5---5-------------------------------------------------------------------| 
E|---------------------------------------------------------------------------------| (x4) 

e|---------------------------------------------------------------------------------| 
B|---------------------------------------------------------------------------------| 
G|-------5---------5---------------------------------------------------------------| 
D|---5-------5---5-----------------------------------------------------------------| 
A|-3---3---3---3-------------------------------------------------------------------| 
E|---------------------------------------------------------------------------------| (x4) 

e|---------------------------------------------------------------------------------| 
B|---------------------------------------------------------------------------------| 
G|-----------0---------------------------------------------------------------------| 
D|-----7---7-----------------------------------------------------------------------| 
A|---7---7-------------------------------------------------------------------------| 
E|-5-------------------------------------------------------------------------------| (x4) 

e|---------------------------------------------------------------------------------| 
B|-----------0---------------------------------------------------------------------| 
G|-----7---7-----7-----------------------------------------------------------------| 
D|---7---7-----7-------------------------------------------------------------------| 
A|-5-------------------------------------------------------------------------------| 
E|---------------------------------------------------------------------------------| 

Outro 
(Repeat these chords until the end of the song) 
      D         C         A 
e|----x---------x---------x--------------------------------------------------------| 
B|----x---------x---------x--------------------------------------------------------| 
G|----7---------5---------x--------------------------------------------------------| 
D|----7---------5---------7--------------------------------------------------------| 
A|----5---------3---------7--------------------------------------------------------| 
E|----x---------x---------5--------------------------------------------------------| 


************************************ 

| x  Dead note 

************************************ 
    	
fixar
fixar inscrever-se

enviado porenviado por: ubirbomfim
cifra enviadaCorrigida por: sem correções
logo top cifrasComente
ico música do artistaMúsicas deste artista
ico curtiuCurtiu?
ico destaqueDestaque
Petaxxon Comunicação Online

Cifras.com.br - Melhor e mais completo site de cifras e tablaturas do Brasil Mais de 1 milhão de acordes de músicas cadastradas desde 2003
As informações contidas no nosso site são colaborações de seus usuários e podem conter erros, sendo assim, não nos responsabilizamos sobre nenhuma destas.

close
menos
mais
close
Cor dos acordes:

Cor da letra:

close
Alinhar acordes a direita Alinhar acordes a esquerda Alinhar acordes em baixo Alinhar acordes no topo
close
  Mostrar todos os acordes Esconder acordes muito fáceis Esconder acordes fáceis Esconder acordes intermediários
redimensionar
glossário