Cifras e Tablaturas
Avril Lavigne

Avril Lavigne

I Will Be

Cifras Cancelar Versão de Impressão Print

Avril Lavigne - I Will Be

Tom: G

  			

 - Intro: 

Piano 
e|-3-3-3-3-3---| 
B|-3-3-3-3-3---| 
G|-------------| 
D|-------------| 
A|-------------| 
E|-------------| 

 - verse 1 
(there's nothing i could say to you...) 

Piano 
e|-3-3-3-3-3-0-0-0-0-0-2-2-2-2-2-0-0-0-0-0------------| 
B|-3-3-3-3-3-0-0-0-0-0-3-3-3-3-3-1-1-1-1-1------------| 
G|----------------------------------------------------| 
D|----------------------------------------------------|   2x 
A|----------------------------------------------------| 
E|----------------------------------------------------| 
     G          Em        Bm        C 

 - Pre Chorus 
(I know i let you down...) 

Piano 
e|-0-0-0-0-0-0-0-0-0-0-0-0-0-0-0-0---2---| 
B|-0-0-0-0-0-1-1-1-1-1-0-0-0-0-0-1---3---| 
G|---------------------------------------| 
D|---------------------------------------|    
A|---------------------------------------| 
E|---------------------------------------| 
     Em          C        Em         D/F# 

 - Chorus  
(I will be all that you want...) 

Piano 
e|-3-3-3-3-3-0-0-0-0-0-2-2-2-2-2-0-0-0-0-0------------| 
B|-3-3-3-3-3-0-0-0-0-0-3-3-3-3-3-1-1-1-1-1------------| 
G|----------------------------------------------------| 
D|----------------------------------------------------|   
A|----------------------------------------------------| 
E|----------------------------------------------------| 
     G          Em        Bm        C 

 - Post Chorus 

Piano 
e|-3-3-3-3-3-0-0-0-0-0-0-0-0-0-0----| 
B|-3-3-3-3-3-0-0-0-0-0-1-1-1-1-1----| 
G|----------------------------------| 
D|----------------------------------|   
A|----------------------------------| 
E|----------------------------------| 
     G          Em        C 

 - verse 2 
(I thought that i had everything...) 

Guitar 1 
e|--3-3-3-3-3-0-0-0-0-0-2-2-2-2-2-0-0-0-0-0----------| 
B|--3-3-3-3-3-0-0-0-0-0-3-3-3-3-3-1-1-1-1-1----------| 
G|--0-0-0-0-0-0-0-0-0-0-4-4-4-4-4-0-0-0-0-0----------| 
D|--0-0-0-0-0-2-2-2-2-2-4-4-4-4-4-2-2-2-2-2----------|   2x 
A|--2-2-2-2-2-2-2-2-2-2-2-2-2-2-2-3-3-3-3-3----------| 
E|--3-3-3-3-3-0-0-0-0-0------------------------------| 
        G        Em        Bm         C 

Piano 
e|-3-3-3-3-3-0-0-0-0-0-2-2-2-2-2-0-0-0-0-0------------| 
B|-3-3-3-3-3-0-0-0-0-0-3-3-3-3-3-1-1-1-1-1------------| 
G|----------------------------------------------------| 
D|----------------------------------------------------|   2x 
A|----------------------------------------------------| 
E|----------------------------------------------------| 
     G          Em        Bm        C 

 - Pre Chorus 2 
(And if i let you down...) 

Guitar 1 
e|--0-0-0-0-0-0-0-0-0-0-0-0-0-0-0-0--2------| 
B|--0-0-0-0-0-1-1-1-1-1-0-0-0-0-0-1--3------| 
G|--0-0-0-0-0-0-0-0-0-0-0-0-0-0-0-0--2------| 
D|--2-2-2-2-2-2-2-2-2-2-2-2-2-2-2-2--x------|   
A|--2-2-2-2-2-3-3-3-3-3-2-2-2-2-2-3--x------| 
E|--0-0-0-0-0-----------0-0-0-0-0----2------| 
        Em        C        Em     C  D/F#     

Guitar 2 
e|------------------------------------------| 
B|------------------------------------------| 
G|--9---------5---------9---------5---------| 
D|--9---------5---------9---------5---------| 
A|--7---------3---------7---------3---------| 
E|------------------------------------------| 


Piano 
e|-0-0-0-0-0-0-0-0-0-0-0-0-0-0-0-0---2---| 
B|-0-0-0-0-0-1-1-1-1-1-0-0-0-0-0-1---3---| 
G|---------------------------------------| 
D|---------------------------------------|    
A|---------------------------------------| 
E|---------------------------------------| 
     Em          C        Em         D/F# 

 - Chorus 2  
(I will be all that you want...) 

Guitar 1 
e|--3-3-3-3-3-0-0-0-0-0-2-2-2-2-2-0-0-0-0-0----------| 
B|--3-3-3-3-3-0-0-0-0-0-3-3-3-3-3-1-1-1-1-1----------| 
G|--0-0-0-0-0-0-0-0-0-0-4-4-4-4-4-0-0-0-0-0----------| 
D|--0-0-0-0-0-2-2-2-2-2-4-4-4-4-4-2-2-2-2-2----------|   2x 
A|--2-2-2-2-2-2-2-2-2-2-2-2-2-2-2-3-3-3-3-3----------| 
E|--3-3-3-3-3-0-0-0-0-0------------------------------| 
        G        Em        Bm         C 

Guitar 2 
e|----------------------------------------------------| 
B|-----------------------3----------------------------| 
G|-------------9---------4-------5--------------------| 
D|--5----------9---------4-------5--------------------| 
A|--5----------7---------2-------3--------------------|  2x 
E|--3-------------------------------------------------| 

Piano 
e|-3-3-3-3-3-0-0-0-0-0-2-2-2-2-2-0-0-0-0-0------------| 
B|-3-3-3-3-3-0-0-0-0-0-3-3-3-3-3-1-1-1-1-1------------| 
G|----------------------------------------------------| 
D|----------------------------------------------------|   
A|----------------------------------------------------|   2x 
E|----------------------------------------------------| 
     G          Em        Bm        C 



 - Bridge 
(Cause without you i can't sleep...) 

Guitar 1  
e|--2-2-2-2-2-0-0-0-0-0-2-2-2-2-2-0-0-0-0-0----------| 
B|--3-3-3-3-3-0-0-0-0-0-3-3-3-3-3-0-0-0-0-0----------| 
G|--2-2-2-2-2-0-0-0-0-0-2-2-2-2-2-0-0-0-0-0----------| 
D|--0-0-0-0-0-2-2-2-2-2-0-0-0-0-0-2-2-2-2-2----------|  
A|------------2-2-2-2-2-----------2-2-2-2-2----------| 
E|------------0-0-0-0-0-----------0-0-0-0-0----------| 
        D         Em        D        Em 

Piano 
e|---2---2---2---2---2---0---0---0---0---0---2---2---2---2---2---0---0---0---0---0---| 
B|---3---3---3---3---3---0---0---0---0---0---3---3---3---3---3---0---0---0---0---0---| 
G|-2---2---2---2---2---0---0---0---0---0---2---2---2---2---2---0---0---0---0---0-----| 
D|-----------------------------------------------------------------------------------|   
A|-----------------------------------------------------------------------------------|  
E|-----------------------------------------------------------------------------------| 
         D                    Em                 D                    Em 

(And without you i don't know what i'll do...) 

Guitar 1  
e|--2-2-2-2-2-0-0-0-0-0-0-0-0-0-0-2-2-2-2-2----------| 
B|--3-3-3-3-3-0-0-0-0-0-1-1-1-1-1-3-3-3-3-3----------| 
G|--2-2-2-2-2-0-0-0-0-0-0-0-0-0-0-2-2-2-2-2----------| 
D|--0-0-0-0-0-2-2-2-2-2-2-2-2-2-2-0-0-0-0-0----------|  
A|------------2-2-2-2-2-3-3-3-3-3-0-0-0-0-0----------| 
E|------------0-0-0-0-0-----------0-0-0-0-0----------| 
        D         Em        C        D 

Piano 
e|---2---2---2---2---2---0---0---0---0---0---0---0---0---0---0---2---2---2---2---2----| 
B|---3---3---3---3---3---0---0---0---0---0---1---1---1---1---1---3---3---3---3---3----| 
G|-2---2---2---2---2---0---0---0---0---0---0---0---0---0---0---2---2---2---2---2------| 
D|------------------------------------------------------------------------------------|   
A|------------------------------------------------------------------------------------|  
E|------------------------------------------------------------------------------------| 
         D                      Em                 C                   D 

 - Chorus 3  
(I will be all that you want...) 

Guitar 1 
e|--3-3-3-3-3-0-0-0-0-0-2-2-2-2-2-0-0-0-0-0----------| 
B|--3-3-3-3-3-0-0-0-0-0-3-3-3-3-3-1-1-1-1-1----------| 
G|--0-0-0-0-0-0-0-0-0-0-4-4-4-4-4-0-0-0-0-0----------| 
D|--0-0-0-0-0-2-2-2-2-2-4-4-4-4-4-2-2-2-2-2----------|   4x 
A|--2-2-2-2-2-2-2-2-2-2-2-2-2-2-2-3-3-3-3-3----------| 
E|--3-3-3-3-3-0-0-0-0-0------------------------------| 
        G        Em        Bm         C 

Guitar 2 
e|----------------------------------------------------| 
B|-----------------------3----------------------------| 
G|-------------9---------4-------5--------------------| 
D|--5----------9---------4-------5--------------------| 
A|--5----------7---------2-------3--------------------|  4x 
E|--3-------------------------------------------------| 

Piano 
e|-3-3-3-3-3-0-0-0-0-0-2-2-2-2-2-0-0-0-0-0------------| 
B|-3-3-3-3-3-0-0-0-0-0-3-3-3-3-3-1-1-1-1-1------------| 
G|----------------------------------------------------| 
D|----------------------------------------------------|   
A|----------------------------------------------------|   4x 
E|----------------------------------------------------| 
     G          Em        Bm        C 


Ends with a G chord. 


- Tabbed by Fabio BlenderBR 
- Don't forget to rate ;) 
    	
fixar
fixar inscrever-se

enviado porenviado por: aman_claudino
cifra enviadaCorrigida por: sem correções
logo top cifrasComente
ico música do artistaMúsicas deste artista
ico curtiuCurtiu?
ico destaqueDestaque
Petaxxon Comunicação Online

Cifras.com.br - Melhor e mais completo site de cifras e tablaturas do Brasil Mais de 1 milhão de acordes de músicas cadastradas desde 2003
As informações contidas no nosso site são colaborações de seus usuários e podem conter erros, sendo assim, não nos responsabilizamos sobre nenhuma destas.

close
menos
mais
close
Cor dos acordes:

Cor da letra:

close
Alinhar acordes a direita Alinhar acordes a esquerda Alinhar acordes em baixo Alinhar acordes no topo
close
  Mostrar todos os acordes Esconder acordes muito fáceis Esconder acordes fáceis Esconder acordes intermediários
redimensionar
glossário